ISO-10303-21;
HEADER;
FILE_DESCRIPTION (( 'STEP AP214' ),
    '1' );
FILE_NAME ('038654_Anschlag-Puffer_Schwingmetall_ContiTech.STEP',
    '2013-11-05T12:12:40',
    ( '' ),
    ( '' ),
    'SwSTEP 2.0',
    'SolidWorks 2012',
    '' );
FILE_SCHEMA (( 'AUTOMOTIVE_DESIGN' ));
ENDSEC;

DATA;
#1 = AXIS2_PLACEMENT_3D ( 'NONE', #180, #173, #142 ) ;
#2 = AXIS2_PLACEMENT_3D ( 'NONE', #96, #106, #59 ) ;
#3 = AXIS2_PLACEMENT_3D ( 'NONE', #175, #58, #83 ) ;
#4 = AXIS2_PLACEMENT_3D ( 'NONE', #113, #115, #110 ) ;
#5 = AXIS2_PLACEMENT_3D ( 'NONE', #47, #181, #187 ) ;
#6 = AXIS2_PLACEMENT_3D ( 'NONE', #57, #116, #104 ) ;
#7 = AXIS2_PLACEMENT_3D ( 'NONE', #102, #98, #121 ) ;
#8 = AXIS2_PLACEMENT_3D ( 'NONE', #74, #77, #170 ) ;
#9 = AXIS2_PLACEMENT_3D ( 'NONE', #137, #39, #92 ) ;
#10 =( GEOMETRIC_REPRESENTATION_CONTEXT ( 3 ) GLOBAL_UNCERTAINTY_ASSIGNED_CONTEXT ( ( #257 ) ) GLOBAL_UNIT_ASSIGNED_CONTEXT ( ( #82, #89, #37 ) ) REPRESENTATION_CONTEXT ( 'NONE', 'WORKASPACE' ) );
#11 = STYLED_ITEM ( 'NONE', ( #243 ), #255 ) ;
#12 = PRESENTATION_LAYER_ASSIGNMENT (  '', '', ( #11 ) ) ;
#13 = MECHANICAL_DESIGN_GEOMETRIC_PRESENTATION_REPRESENTATION (  '', ( #11 ), #14 ) ;
#14 =( GEOMETRIC_REPRESENTATION_CONTEXT ( 3 ) GLOBAL_UNCERTAINTY_ASSIGNED_CONTEXT ( ( #254 ) ) GLOBAL_UNIT_ASSIGNED_CONTEXT ( ( #86, #34, #40 ) ) REPRESENTATION_CONTEXT ( 'NONE', 'WORKASPACE' ) );
#15 = AXIS2_PLACEMENT_3D ( 'NONE', #118, #41, #43 ) ;
#16 = PRODUCT_DEFINITION ( 'UNKNOWN', '', #17, #253 ) ;
#17 = PRODUCT_DEFINITION_FORMATION_WITH_SPECIFIED_SOURCE ( 'ANY', '', #400, .NOT_KNOWN. ) ;
#18 = PRODUCT_RELATED_PRODUCT_CATEGORY ( 'part', '', ( #400 ) ) ;
#19 = AXIS2_PLACEMENT_3D ( 'NONE', #188, #143, #126 ) ;
#20 = AXIS2_PLACEMENT_3D ( 'NONE', #141, #119, #139 ) ;
#21 = AXIS2_PLACEMENT_3D ( 'NONE', #100, #99, #94 ) ;
#22 = AXIS2_PLACEMENT_3D ( 'NONE', #73, #112, #78 ) ;
#23 = AXIS2_PLACEMENT_3D ( 'NONE', #50, #56, #55 ) ;
#24 = AXIS2_PLACEMENT_3D ( 'NONE', #154, #168, #159 ) ;
#25 = AXIS2_PLACEMENT_3D ( 'NONE', #163, #162, #153 ) ;
#26 = AXIS2_PLACEMENT_3D ( 'NONE', #169, #76, #66 ) ;
#27 = AXIS2_PLACEMENT_3D ( 'NONE', #140, #67, #101 ) ;
#28 = AXIS2_PLACEMENT_3D ( 'NONE', #148, #174, #167 ) ;
#29 = AXIS2_PLACEMENT_3D ( 'NONE', #158, #71, #103 ) ;
#30 = AXIS2_PLACEMENT_3D ( 'NONE', #129, #161, #150 ) ;
#31 = CARTESIAN_POINT ( 'NONE',  ( 0.0000000000000000000, 0.0000000000000000000, 0.0000000000000000000 ) ) ;
#32 = DIRECTION ( 'NONE',  ( -0.0000000000000000000, -1.000000000000000000, -0.0000000000000000000 ) ) ;
#33 = APPLICATION_PROTOCOL_DEFINITION ( 'draft international standard', 'automotive_design', 1998, #85 ) ;
#34 =( NAMED_UNIT ( * ) PLANE_ANGLE_UNIT ( ) SI_UNIT ( $, .RADIAN. ) );
#35 = CARTESIAN_POINT ( 'NONE',  ( 0.0000000000000000000, 8.000000000000000000, 0.0000000000000000000 ) ) ;
#36 = DIRECTION ( 'NONE',  ( -0.0000000000000000000, -1.000000000000000000, -0.0000000000000000000 ) ) ;
#37 =( NAMED_UNIT ( * ) SI_UNIT ( $, .STERADIAN. ) SOLID_ANGLE_UNIT ( ) );
#38 = CARTESIAN_POINT ( 'NONE',  ( 0.0000000000000000000, 57.99999999999999300, 0.0000000000000000000 ) ) ;
#39 = DIRECTION ( 'NONE',  ( -0.0000000000000000000, -1.000000000000000000, -0.0000000000000000000 ) ) ;
#40 =( NAMED_UNIT ( * ) SI_UNIT ( $, .STERADIAN. ) SOLID_ANGLE_UNIT ( ) );
#41 = DIRECTION ( 'NONE',  ( 0.0000000000000000000, 0.0000000000000000000, 1.000000000000000000 ) ) ;
#42 = CARTESIAN_POINT ( 'NONE',  ( 0.0000000000000000000, 0.0000000000000000000, 0.0000000000000000000 ) ) ;
#43 = DIRECTION ( 'NONE',  ( 1.000000000000000000, 0.0000000000000000000, 0.0000000000000000000 ) ) ;
#44 = PRODUCT_CONTEXT ( 'NONE', #85, 'mechanical' ) ;
#45 = APPLICATION_CONTEXT ( 'automotive_design' ) ;
#46 = APPLICATION_PROTOCOL_DEFINITION ( 'draft international standard', 'automotive_design', 1998, #45 ) ;
#47 = CARTESIAN_POINT ( 'NONE',  ( 0.0000000000000000000, 0.0000000000000000000, 0.0000000000000000000 ) ) ;
#48 = DIRECTION ( 'NONE',  ( 0.0000000000000000000, 0.0000000000000000000, -1.000000000000000000 ) ) ;
#49 = CARTESIAN_POINT ( 'NONE',  ( 0.0000000000000000000, 57.99999999999999300, 0.0000000000000000000 ) ) ;
#50 = CARTESIAN_POINT ( 'NONE',  ( 7.641796026679483700E-015, 13.00000000000000200, 62.39999999999999900 ) ) ;
#51 = CARTESIAN_POINT ( 'NONE',  ( 7.960204194457799400E-016, 0.0000000000000000000, 6.500000000000003600 ) ) ;
#52 = DIRECTION ( 'NONE',  ( 0.0000000000000000000, -1.000000000000000000, -0.0000000000000000000 ) ) ;
#53 = DIRECTION ( 'NONE',  ( 0.0000000000000000000, 0.0000000000000000000, -1.000000000000000000 ) ) ;
#54 = DIRECTION ( 'NONE',  ( 0.0000000000000000000, 0.0000000000000000000, -1.000000000000000000 ) ) ;
#55 = DIRECTION ( 'NONE',  ( -1.224646799147354200E-016, 0.0000000000000000000, -1.000000000000000000 ) ) ;
#56 = DIRECTION ( 'NONE',  ( 1.000000000000000000, 0.0000000000000000000, -1.224646799147353200E-016 ) ) ;
#57 = CARTESIAN_POINT ( 'NONE',  ( 3.110602869834276900E-015, 57.99999999999999300, 25.39999999999999900 ) ) ;
#58 = DIRECTION ( 'NONE',  ( 0.0000000000000000000, 1.000000000000000000, 0.0000000000000000000 ) ) ;
#59 = DIRECTION ( 'NONE',  ( 0.0000000000000000000, 0.0000000000000000000, -1.000000000000000000 ) ) ;
#60 = CARTESIAN_POINT ( 'NONE',  ( 0.0000000000000000000, 90.00000000000000000, -25.39999999999999500 ) ) ;
#61 = DIRECTION ( 'NONE',  ( -0.0000000000000000000, -1.000000000000000000, -0.0000000000000000000 ) ) ;
#62 =( NAMED_UNIT ( * ) SI_UNIT ( $, .STERADIAN. ) SOLID_ANGLE_UNIT ( ) );
#63 = DIRECTION ( 'NONE',  ( -0.0000000000000000000, -1.000000000000000000, -0.0000000000000000000 ) ) ;
#64 = DIRECTION ( 'NONE',  ( -0.0000000000000000000, -1.000000000000000000, -0.0000000000000000000 ) ) ;
#65 = DIRECTION ( 'NONE',  ( 0.0000000000000000000, 0.0000000000000000000, -1.000000000000000000 ) ) ;
#66 = DIRECTION ( 'NONE',  ( 0.0000000000000000000, 0.0000000000000000000, -1.000000000000000000 ) ) ;
#67 = DIRECTION ( 'NONE',  ( 0.0000000000000000000, 1.000000000000000000, 0.0000000000000000000 ) ) ;
#68 = DIRECTION ( 'NONE',  ( -0.0000000000000000000, -1.000000000000000000, -0.0000000000000000000 ) ) ;
#69 = DIRECTION ( 'NONE',  ( 0.0000000000000000000, 0.0000000000000000000, -1.000000000000000000 ) ) ;
#70 = DIRECTION ( 'NONE',  ( -0.0000000000000000000, -1.000000000000000000, -0.0000000000000000000 ) ) ;
#71 = DIRECTION ( 'NONE',  ( -0.0000000000000000000, -1.000000000000000000, -0.0000000000000000000 ) ) ;
#72 = DIRECTION ( 'NONE',  ( 0.0000000000000000000, 0.0000000000000000000, -1.000000000000000000 ) ) ;
#73 = CARTESIAN_POINT ( 'NONE',  ( 0.0000000000000000000, 13.00000000000000200, 0.0000000000000000000 ) ) ;
#74 = CARTESIAN_POINT ( 'NONE',  ( 0.0000000000000000000, 17.50000000000000000, 0.0000000000000000000 ) ) ;
#75 = SURFACE_STYLE_USAGE ( .BOTH. , #120 ) ;
#76 = DIRECTION ( 'NONE',  ( -0.0000000000000000000, -1.000000000000000000, -0.0000000000000000000 ) ) ;
#77 = DIRECTION ( 'NONE',  ( -0.0000000000000000000, -1.000000000000000000, -0.0000000000000000000 ) ) ;
#78 = DIRECTION ( 'NONE',  ( 0.0000000000000000000, 0.0000000000000000000, -1.000000000000000000 ) ) ;
#79 = DIRECTION ( 'NONE',  ( 0.0000000000000000000, 0.0000000000000000000, -1.000000000000000000 ) ) ;
#80 = DIRECTION ( 'NONE',  ( 0.0000000000000000000, 0.0000000000000000000, -1.000000000000000000 ) ) ;
#81 = DIRECTION ( 'NONE',  ( -0.0000000000000000000, -1.000000000000000000, -0.0000000000000000000 ) ) ;
#82 =( LENGTH_UNIT ( ) NAMED_UNIT ( * ) SI_UNIT ( .MILLI., .METRE. ) );
#83 = DIRECTION ( 'NONE',  ( 0.0000000000000000000, -0.0000000000000000000, 1.000000000000000000 ) ) ;
#84 = DIRECTION ( 'NONE',  ( -0.0000000000000000000, -1.000000000000000000, -0.0000000000000000000 ) ) ;
#85 = APPLICATION_CONTEXT ( 'automotive_design' ) ;
#86 =( LENGTH_UNIT ( ) NAMED_UNIT ( * ) SI_UNIT ( .MILLI., .METRE. ) );
#87 = CARTESIAN_POINT ( 'NONE',  ( 7.960204194457797400E-016, 0.0000000000000000000, 6.500000000000001800 ) ) ;
#88 = CARTESIAN_POINT ( 'NONE',  ( 0.0000000000000000000, 0.0000000000000000000, -62.50000000000000000 ) ) ;
#89 =( NAMED_UNIT ( * ) PLANE_ANGLE_UNIT ( ) SI_UNIT ( $, .RADIAN. ) );
#90 = DIRECTION ( 'NONE',  ( 0.0000000000000000000, 0.0000000000000000000, -1.000000000000000000 ) ) ;
#91 = CARTESIAN_POINT ( 'NONE',  ( 0.0000000000000000000, 57.99999999999999300, 0.0000000000000000000 ) ) ;
#92 = DIRECTION ( 'NONE',  ( 0.0000000000000000000, 0.0000000000000000000, -1.000000000000000000 ) ) ;
#93 = FILL_AREA_STYLE ('',( #108 ) ) ;
#94 = DIRECTION ( 'NONE',  ( 0.0000000000000000000, 0.0000000000000000000, -1.000000000000000000 ) ) ;
#95 = DIRECTION ( 'NONE',  ( -0.0000000000000000000, -1.000000000000000000, -0.0000000000000000000 ) ) ;
#96 = CARTESIAN_POINT ( 'NONE',  ( 0.0000000000000000000, 13.00000000000000200, 0.0000000000000000000 ) ) ;
#97 = DIRECTION ( 'NONE',  ( 0.0000000000000000000, 0.0000000000000000000, -1.000000000000000000 ) ) ;
#98 = DIRECTION ( 'NONE',  ( -0.0000000000000000000, -1.000000000000000000, -0.0000000000000000000 ) ) ;
#99 = DIRECTION ( 'NONE',  ( -0.0000000000000000000, -1.000000000000000000, -0.0000000000000000000 ) ) ;
#100 = CARTESIAN_POINT ( 'NONE',  ( 0.0000000000000000000, 8.000000000000000000, 0.0000000000000000000 ) ) ;
#101 = DIRECTION ( 'NONE',  ( 0.0000000000000000000, -0.0000000000000000000, 1.000000000000000000 ) ) ;
#102 = CARTESIAN_POINT ( 'NONE',  ( 0.0000000000000000000, 0.0000000000000000000, 0.0000000000000000000 ) ) ;
#103 = DIRECTION ( 'NONE',  ( 0.0000000000000000000, 0.0000000000000000000, -1.000000000000000000 ) ) ;
#104 = DIRECTION ( 'NONE',  ( -1.224646799147353200E-016, 0.0000000000000000000, -1.000000000000000000 ) ) ;
#105 = DIRECTION ( 'NONE',  ( 0.0000000000000000000, 0.0000000000000000000, 1.000000000000000000 ) ) ;
#106 = DIRECTION ( 'NONE',  ( -0.0000000000000000000, -1.000000000000000000, -0.0000000000000000000 ) ) ;
#107 = CARTESIAN_POINT ( 'NONE',  ( 0.0000000000000000000, 0.0000000000000000000, 0.0000000000000000000 ) ) ;
#108 = FILL_AREA_STYLE_COLOUR ( '', #223 ) ;
#109 = FILL_AREA_STYLE ('',( #117 ) ) ;
#110 = DIRECTION ( 'NONE',  ( 0.0000000000000000000, 0.0000000000000000000, 1.000000000000000000 ) ) ;
#111 = CARTESIAN_POINT ( 'NONE',  ( 0.0000000000000000000, 13.00000000000000200, 0.0000000000000000000 ) ) ;
#112 = DIRECTION ( 'NONE',  ( -0.0000000000000000000, -1.000000000000000000, -0.0000000000000000000 ) ) ;
#113 = CARTESIAN_POINT ( 'NONE',  ( 0.0000000000000000000, 57.99999999999999300, -25.39999999999999900 ) ) ;
#114 = DIRECTION ( 'NONE',  ( -0.0000000000000000000, -1.000000000000000000, -0.0000000000000000000 ) ) ;
#115 = DIRECTION ( 'NONE',  ( -1.000000000000000000, 0.0000000000000000000, 0.0000000000000000000 ) ) ;
#116 = DIRECTION ( 'NONE',  ( 1.000000000000000000, 0.0000000000000000000, -1.224646799147353200E-016 ) ) ;
#117 = FILL_AREA_STYLE_COLOUR ( '', #242 ) ;
#118 = CARTESIAN_POINT ( 'NONE',  ( 0.0000000000000000000, 0.0000000000000000000, 0.0000000000000000000 ) ) ;
#119 = DIRECTION ( 'NONE',  ( -0.0000000000000000000, -1.000000000000000000, -0.0000000000000000000 ) ) ;
#120 = SURFACE_SIDE_STYLE ('',( #364 ) ) ;
#121 = DIRECTION ( 'NONE',  ( 0.0000000000000000000, 0.0000000000000000000, -1.000000000000000000 ) ) ;
#122 =( NAMED_UNIT ( * ) PLANE_ANGLE_UNIT ( ) SI_UNIT ( $, .RADIAN. ) );
#123 = SURFACE_STYLE_USAGE ( .BOTH. , #124 ) ;
#124 = SURFACE_SIDE_STYLE ('',( #214 ) ) ;
#125 = CARTESIAN_POINT ( 'NONE',  ( 6.500000000000002700, 0.0000000000000000000, 0.0000000000000000000 ) ) ;
#126 = DIRECTION ( 'NONE',  ( 0.0000000000000000000, 0.0000000000000000000, -1.000000000000000000 ) ) ;
#127 = PLANE ( 'NONE',  #227 ) ;
#128 = DIRECTION ( 'NONE',  ( 0.0000000000000000000, 0.0000000000000000000, -1.000000000000000000 ) ) ;
#129 = CARTESIAN_POINT ( 'NONE',  ( 0.0000000000000000000, 0.0000000000000000000, 0.0000000000000000000 ) ) ;
#130 = DIRECTION ( 'NONE',  ( -0.0000000000000000000, -1.000000000000000000, -0.0000000000000000000 ) ) ;
#131 = DIRECTION ( 'NONE',  ( -0.0000000000000000000, -1.000000000000000000, -0.0000000000000000000 ) ) ;
#132 = CARTESIAN_POINT ( 'NONE',  ( 0.0000000000000000000, 90.00000000000000000, 0.0000000000000000000 ) ) ;
#133 =( LENGTH_UNIT ( ) NAMED_UNIT ( * ) SI_UNIT ( .MILLI., .METRE. ) );
#134 = CARTESIAN_POINT ( 'NONE',  ( 0.0000000000000000000, 0.0000000000000000000, -6.500000000000001800 ) ) ;
#135 = CARTESIAN_POINT ( 'NONE',  ( 0.0000000000000000000, 0.0000000000000000000, -6.500000000000002700 ) ) ;
#136 = DIRECTION ( 'NONE',  ( -0.0000000000000000000, -1.000000000000000000, -0.0000000000000000000 ) ) ;
#137 = CARTESIAN_POINT ( 'NONE',  ( 0.0000000000000000000, 90.00000000000000000, 0.0000000000000000000 ) ) ;
#138 = DIRECTION ( 'NONE',  ( -0.0000000000000000000, -1.000000000000000000, -0.0000000000000000000 ) ) ;
#139 = DIRECTION ( 'NONE',  ( 0.0000000000000000000, 0.0000000000000000000, -1.000000000000000000 ) ) ;
#140 = CARTESIAN_POINT ( 'NONE',  ( 62.50000000000000000, 8.000000000000000000, 0.0000000000000000000 ) ) ;
#141 = CARTESIAN_POINT ( 'NONE',  ( 0.0000000000000000000, 8.000000000000000000, 0.0000000000000000000 ) ) ;
#142 = DIRECTION ( 'NONE',  ( 0.0000000000000000000, 0.0000000000000000000, -1.000000000000000000 ) ) ;
#143 = DIRECTION ( 'NONE',  ( -0.0000000000000000000, -1.000000000000000000, -0.0000000000000000000 ) ) ;
#144 = DIRECTION ( 'NONE',  ( -0.0000000000000000000, -1.000000000000000000, -0.0000000000000000000 ) ) ;
#145 = DIRECTION ( 'NONE',  ( -0.0000000000000000000, -1.000000000000000000, -0.0000000000000000000 ) ) ;
#146 = CARTESIAN_POINT ( 'NONE',  ( 0.0000000000000000000, 0.0000000000000000000, -57.39999999999999900 ) ) ;
#147 = CARTESIAN_POINT ( 'NONE',  ( 0.0000000000000000000, 17.50000000000000000, 0.0000000000000000000 ) ) ;
#148 = CARTESIAN_POINT ( 'NONE',  ( 0.0000000000000000000, 57.99999999999999300, 0.0000000000000000000 ) ) ;
#149 = CARTESIAN_POINT ( 'NONE',  ( 7.654042494670957800E-015, 8.000000000000000000, 62.50000000000000000 ) ) ;
#150 = DIRECTION ( 'NONE',  ( 0.0000000000000000000, 0.0000000000000000000, -1.000000000000000000 ) ) ;
#151 = PLANE ( 'NONE',  #27 ) ;
#152 = CARTESIAN_POINT ( 'NONE',  ( 0.0000000000000000000, 13.00000000000000200, -62.39999999999999900 ) ) ;
#153 = DIRECTION ( 'NONE',  ( 0.0000000000000000000, 0.0000000000000000000, -1.000000000000000000 ) ) ;
#154 = CARTESIAN_POINT ( 'NONE',  ( 0.0000000000000000000, 8.000000000000000000, 0.0000000000000000000 ) ) ;
#155 = CARTESIAN_POINT ( 'NONE',  ( 0.0000000000000000000, 17.50000000000000000, -6.500000000000000900 ) ) ;
#156 = CARTESIAN_POINT ( 'NONE',  ( 0.0000000000000000000, 8.000000000000000000, -62.50000000000000000 ) ) ;
#157 = CARTESIAN_POINT ( 'NONE',  ( 7.654042494670957800E-015, 0.0000000000000000000, 62.50000000000000000 ) ) ;
#158 = CARTESIAN_POINT ( 'NONE',  ( 0.0000000000000000000, 0.0000000000000000000, 0.0000000000000000000 ) ) ;
#159 = DIRECTION ( 'NONE',  ( 0.0000000000000000000, 0.0000000000000000000, -1.000000000000000000 ) ) ;
#160 = CARTESIAN_POINT ( 'NONE',  ( 5.070037748470042400E-015, 90.00000000000000000, 25.39999999999999500 ) ) ;
#161 = DIRECTION ( 'NONE',  ( -0.0000000000000000000, -1.000000000000000000, -0.0000000000000000000 ) ) ;
#162 = DIRECTION ( 'NONE',  ( -0.0000000000000000000, -1.000000000000000000, -0.0000000000000000000 ) ) ;
#163 = CARTESIAN_POINT ( 'NONE',  ( 0.0000000000000000000, 0.0000000000000000000, 0.0000000000000000000 ) ) ;
#164 = PLANE ( 'NONE',  #1 ) ;
#165 = PLANE ( 'NONE',  #3 ) ;
#166 = DIRECTION ( 'NONE',  ( 0.0000000000000000000, 0.0000000000000000000, -1.000000000000000000 ) ) ;
#167 = DIRECTION ( 'NONE',  ( 0.0000000000000000000, 0.0000000000000000000, -1.000000000000000000 ) ) ;
#168 = DIRECTION ( 'NONE',  ( -0.0000000000000000000, -1.000000000000000000, -0.0000000000000000000 ) ) ;
#169 = CARTESIAN_POINT ( 'NONE',  ( 0.0000000000000000000, 13.00000000000000200, 0.0000000000000000000 ) ) ;
#170 = DIRECTION ( 'NONE',  ( 0.0000000000000000000, 0.0000000000000000000, -1.000000000000000000 ) ) ;
#171 = CARTESIAN_POINT ( 'NONE',  ( 7.029472627105807900E-015, 57.99999999999999300, 57.39999999999999900 ) ) ;
#172 = CARTESIAN_POINT ( 'NONE',  ( 0.0000000000000000000, 0.0000000000000000000, -62.50000000000000000 ) ) ;
#173 = DIRECTION ( 'NONE',  ( 0.0000000000000000000, -1.000000000000000000, -0.0000000000000000000 ) ) ;
#174 = DIRECTION ( 'NONE',  ( -0.0000000000000000000, -1.000000000000000000, -0.0000000000000000000 ) ) ;
#175 = CARTESIAN_POINT ( 'NONE',  ( 25.39999999999999500, 90.00000000000000000, 0.0000000000000000000 ) ) ;
#176 = CARTESIAN_POINT ( 'NONE',  ( 0.0000000000000000000, 57.99999999999999300, -57.39999999999999900 ) ) ;
#177 = CARTESIAN_POINT ( 'NONE',  ( 0.0000000000000000000, 0.0000000000000000000, 0.0000000000000000000 ) ) ;
#178 = CARTESIAN_POINT ( 'NONE',  ( 7.029472627105807900E-015, 13.00000000000000200, 57.39999999999999900 ) ) ;
#179 = CARTESIAN_POINT ( 'NONE',  ( 7.641796026679483700E-015, 8.000000000000000000, 62.39999999999999900 ) ) ;
#180 = CARTESIAN_POINT ( 'NONE',  ( 6.500000000000000900, 17.50000000000000000, 0.0000000000000000000 ) ) ;
#181 = DIRECTION ( 'NONE',  ( -0.0000000000000000000, -1.000000000000000000, -0.0000000000000000000 ) ) ;
#182 = CARTESIAN_POINT ( 'NONE',  ( 7.960204194457797400E-016, 17.50000000000000000, 6.500000000000000900 ) ) ;
#183 = CARTESIAN_POINT ( 'NONE',  ( 0.0000000000000000000, 13.00000000000000200, -57.39999999999999900 ) ) ;
#184 = CARTESIAN_POINT ( 'NONE',  ( 0.0000000000000000000, 8.000000000000000000, -62.39999999999999900 ) ) ;
#185 = CARTESIAN_POINT ( 'NONE',  ( 7.654042494670957800E-015, 0.0000000000000000000, 62.50000000000000000 ) ) ;
#186 = DIRECTION ( 'NONE',  ( -1.000000000000000000, 0.0000000000000000000, 0.0000000000000000000 ) ) ;
#187 = DIRECTION ( 'NONE',  ( 0.0000000000000000000, 0.0000000000000000000, -1.000000000000000000 ) ) ;
#188 = CARTESIAN_POINT ( 'NONE',  ( 0.0000000000000000000, 0.0000000000000000000, 0.0000000000000000000 ) ) ;
#189 = CARTESIAN_POINT ( 'NONE',  ( 7.029472627105807900E-015, 0.0000000000000000000, 57.39999999999999900 ) ) ;
#190 = ORIENTED_EDGE ( 'NONE', *, *, #294, .T. ) ;
#191 = ORIENTED_EDGE ( 'NONE', *, *, #251, .T. ) ;
#192 = ORIENTED_EDGE ( 'NONE', *, *, #290, .F. ) ;
#193 = TOROIDAL_SURFACE ( 'NONE', #297, 25.39999999999999900, 32.00000000000000000 ) ;
#194 = ORIENTED_EDGE ( 'NONE', *, *, #250, .T. ) ;
#195 = ORIENTED_EDGE ( 'NONE', *, *, #404, .T. ) ;
#196 = CIRCLE ( 'NONE', #230, 62.39999999999999900 ) ;
#197 = ORIENTED_EDGE ( 'NONE', *, *, #293, .F. ) ;
#198 = FACE_OUTER_BOUND ( 'NONE', #279, .T. ) ;
#199 = ORIENTED_EDGE ( 'NONE', *, *, #251, .F. ) ;
#200 = ORIENTED_EDGE ( 'NONE', *, *, #291, .F. ) ;
#201 = FACE_OUTER_BOUND ( 'NONE', #276, .T. ) ;
#202 = ORIENTED_EDGE ( 'NONE', *, *, #402, .T. ) ;
#203 = CIRCLE ( 'NONE', #231, 4.999999999999997300 ) ;
#204 = ORIENTED_EDGE ( 'NONE', *, *, #292, .T. ) ;
#205 = ORIENTED_EDGE ( 'NONE', *, *, #288, .T. ) ;
#206 = ORIENTED_EDGE ( 'NONE', *, *, #401, .F. ) ;
#207 = CYLINDRICAL_SURFACE ( 'NONE', #229, 6.500000000000001800 ) ;
#208 = CIRCLE ( 'NONE', #228, 57.39999999999999900 ) ;
#209 = LINE ( 'NONE', #146, #399 ) ;
#210 = PRESENTATION_STYLE_ASSIGNMENT (( #123 ) ) ;
#211 = ORIENTED_EDGE ( 'NONE', *, *, #261, .T. ) ;
#212 = CIRCLE ( 'NONE', #237, 25.39999999999999500 ) ;
#213 = FACE_BOUND ( 'NONE', #280, .T. ) ;
#214 = SURFACE_STYLE_FILL_AREA ( #93 ) ;
#215 = VECTOR ( 'NONE', #63, 1000.000000000000000 ) ;
#216 = ORIENTED_EDGE ( 'NONE', *, *, #249, .F. ) ;
#217 = CYLINDRICAL_SURFACE ( 'NONE', #226, 6.500000000000001800 ) ;
#218 = ORIENTED_EDGE ( 'NONE', *, *, #289, .F. ) ;
#219 = LINE ( 'NONE', #189, #215 ) ;
#220 = CIRCLE ( 'NONE', #232, 57.39999999999999900 ) ;
#221 = ORIENTED_EDGE ( 'NONE', *, *, #248, .T. ) ;
#222 = ORIENTED_EDGE ( 'NONE', *, *, #260, .F. ) ;
#223 = COLOUR_RGB ( '',0.7529411764705882200, 0.7529411764705882200, 0.7529411764705882200 ) ;
#224 = FACE_OUTER_BOUND ( 'NONE', #271, .T. ) ;
#225 = ORIENTED_EDGE ( 'NONE', *, *, #287, .F. ) ;
#226 = AXIS2_PLACEMENT_3D ( 'NONE', #31, #114, #53 ) ;
#227 = AXIS2_PLACEMENT_3D ( 'NONE', #125, #52, #79 ) ;
#228 = AXIS2_PLACEMENT_3D ( 'NONE', #111, #95, #97 ) ;
#229 = AXIS2_PLACEMENT_3D ( 'NONE', #107, #61, #72 ) ;
#230 = AXIS2_PLACEMENT_3D ( 'NONE', #35, #32, #65 ) ;
#231 = AXIS2_PLACEMENT_3D ( 'NONE', #152, #186, #105 ) ;
#232 = AXIS2_PLACEMENT_3D ( 'NONE', #91, #130, #128 ) ;
#233 = STYLED_ITEM ( 'NONE', ( #210 ), #256 ) ;
#234 = PRESENTATION_LAYER_ASSIGNMENT (  '', '', ( #233 ) ) ;
#235 = MECHANICAL_DESIGN_GEOMETRIC_PRESENTATION_REPRESENTATION (  '', ( #233 ), #236 ) ;
#236 =( GEOMETRIC_REPRESENTATION_CONTEXT ( 3 ) GLOBAL_UNCERTAINTY_ASSIGNED_CONTEXT ( ( #258 ) ) GLOBAL_UNIT_ASSIGNED_CONTEXT ( ( #133, #122, #62 ) ) REPRESENTATION_CONTEXT ( 'NONE', 'WORKASPACE' ) );
#237 = AXIS2_PLACEMENT_3D ( 'NONE', #132, #131, #90 ) ;
#238 = AXIS2_PLACEMENT_3D ( 'NONE', #38, #36, #166 ) ;
#239 = AXIS2_PLACEMENT_3D ( 'NONE', #177, #81, #80 ) ;
#240 = AXIS2_PLACEMENT_3D ( 'NONE', #147, #145, #48 ) ;
#241 = SHAPE_DEFINITION_REPRESENTATION ( #252, #255 ) ;
#242 = COLOUR_RGB ( '',0.7529411764705882200, 0.7529411764705882200, 0.7529411764705882200 ) ;
#243 = PRESENTATION_STYLE_ASSIGNMENT (( #75 ) ) ;
#244 = ADVANCED_FACE ( 'NONE', ( #267 ), #193, .T. ) ;
#245 = ADVANCED_FACE ( 'NONE', ( #198 ), #217, .F. ) ;
#246 = ADVANCED_FACE ( 'NONE', ( #201, #213 ), #127, .T. ) ;
#247 = ADVANCED_FACE ( 'NONE', ( #224 ), #207, .F. ) ;
#248 = EDGE_CURVE ( 'NONE', #320, #329, #208, .T. ) ;
#249 = EDGE_CURVE ( 'NONE', #309, #323, #196, .T. ) ;
#250 = EDGE_CURVE ( 'NONE', #309, #320, #203, .T. ) ;
#251 = EDGE_CURVE ( 'NONE', #343, #302, #220, .T. ) ;
#252 = PRODUCT_DEFINITION_SHAPE ( 'NONE', 'NONE',  #16 ) ;
#253 = PRODUCT_DEFINITION_CONTEXT ( 'detailed design', #45, 'design' ) ;
#254 = UNCERTAINTY_MEASURE_WITH_UNIT (LENGTH_MEASURE( 1.000000000000000100E-005 ), #86, 'distance_accuracy_value', 'NONE');
#255 = ADVANCED_BREP_SHAPE_REPRESENTATION ( '038654_Anschlag-Puffer_Schwingmetall_ContiTech', ( #256, #15 ), #10 ) ;
#256 = MANIFOLD_SOLID_BREP ( 'Rotation1', #268 ) ;
#257 = UNCERTAINTY_MEASURE_WITH_UNIT (LENGTH_MEASURE( 1.000000000000000100E-005 ), #82, 'distance_accuracy_value', 'NONE');
#258 = UNCERTAINTY_MEASURE_WITH_UNIT (LENGTH_MEASURE( 1.000000000000000100E-005 ), #133, 'distance_accuracy_value', 'NONE');
#259 = EDGE_CURVE ( 'NONE', #316, #341, #212, .T. ) ;
#260 = EDGE_CURVE ( 'NONE', #343, #329, #219, .T. ) ;
#261 = EDGE_CURVE ( 'NONE', #302, #320, #209, .T. ) ;
#262 = EDGE_CURVE ( 'NONE', #302, #343, #393, .T. ) ;
#263 = EDGE_CURVE ( 'NONE', #332, #325, #371, .T. ) ;
#264 = EDGE_CURVE ( 'NONE', #310, #332, #395, .T. ) ;
#265 = EDGE_LOOP ( 'NONE', ( #206, #195, #202, #199 ) ) ;
#266 = EDGE_LOOP ( 'NONE', ( #327, #190 ) ) ;
#267 = FACE_OUTER_BOUND ( 'NONE', #265, .T. ) ;
#268 = CLOSED_SHELL ( 'NONE', ( #247, #354, #355, #350, #351, #352, #353, #244, #356, #347, #348, #349, #246, #245 ) ) ;
#269 = ORIENTED_EDGE ( 'NONE', *, *, #285, .F. ) ;
#270 = EDGE_LOOP ( 'NONE', ( #313, #315, #338, #322 ) ) ;
#271 = EDGE_LOOP ( 'NONE', ( #269, #275, #272, #273 ) ) ;
#272 = ORIENTED_EDGE ( 'NONE', *, *, #263, .T. ) ;
#273 = ORIENTED_EDGE ( 'NONE', *, *, #284, .F. ) ;
#274 = EDGE_LOOP ( 'NONE', ( #197, #216, #194, #221 ) ) ;
#275 = ORIENTED_EDGE ( 'NONE', *, *, #264, .T. ) ;
#276 = EDGE_LOOP ( 'NONE', ( #305, #330 ) ) ;
#277 = EDGE_LOOP ( 'NONE', ( #222, #191, #211, #192 ) ) ;
#278 = EDGE_LOOP ( 'NONE', ( #337, #333, #318, #303 ) ) ;
#279 = EDGE_LOOP ( 'NONE', ( #308, #312, #340, #345 ) ) ;
#280 = EDGE_LOOP ( 'NONE', ( #299, #342 ) ) ;
#281 = EDGE_LOOP ( 'NONE', ( #200, #205, #204, #225 ) ) ;
#282 = EDGE_LOOP ( 'NONE', ( #218, #336 ) ) ;
#283 = EDGE_LOOP ( 'NONE', ( #339, #326, #328, #298 ) ) ;
#284 = EDGE_CURVE ( 'NONE', #301, #325, #379, .T. ) ;
#285 = EDGE_CURVE ( 'NONE', #310, #301, #385, .T. ) ;
#286 = EDGE_CURVE ( 'NONE', #325, #332, #392, .T. ) ;
#287 = EDGE_CURVE ( 'NONE', #317, #335, #368, .T. ) ;
#288 = EDGE_CURVE ( 'NONE', #321, #346, #373, .T. ) ;
#289 = EDGE_CURVE ( 'NONE', #346, #321, #361, .T. ) ;
#290 = EDGE_CURVE ( 'NONE', #329, #320, #362, .T. ) ;
#291 = EDGE_CURVE ( 'NONE', #321, #317, #386, .T. ) ;
#292 = EDGE_CURVE ( 'NONE', #346, #335, #360, .T. ) ;
#293 = EDGE_CURVE ( 'NONE', #323, #329, #370, .T. ) ;
#294 = EDGE_CURVE ( 'NONE', #323, #309, #378, .T. ) ;
#295 = EDGE_CURVE ( 'NONE', #335, #317, #387, .T. ) ;
#296 = AXIS2_PLACEMENT_3D ( 'NONE', #42, #70, #69 ) ;
#297 = AXIS2_PLACEMENT_3D ( 'NONE', #49, #136, #54 ) ;
#298 = ORIENTED_EDGE ( 'NONE', *, *, #261, .F. ) ;
#299 = ORIENTED_EDGE ( 'NONE', *, *, #286, .F. ) ;
#300 = EDGE_LOOP ( 'NONE', ( #344, #334, #311, #314 ) ) ;
#301 = VERTEX_POINT ( 'NONE', #155 ) ;
#302 = VERTEX_POINT ( 'NONE', #176 ) ;
#303 = ORIENTED_EDGE ( 'NONE', *, *, #292, .F. ) ;
#304 = EDGE_LOOP ( 'NONE', ( #306, #324 ) ) ;
#305 = ORIENTED_EDGE ( 'NONE', *, *, #295, .T. ) ;
#306 = ORIENTED_EDGE ( 'NONE', *, *, #259, .F. ) ;
#307 = ORIENTED_EDGE ( 'NONE', *, *, #285, .T. ) ;
#308 = ORIENTED_EDGE ( 'NONE', *, *, #264, .F. ) ;
#309 = VERTEX_POINT ( 'NONE', #184 ) ;
#310 = VERTEX_POINT ( 'NONE', #182 ) ;
#311 = ORIENTED_EDGE ( 'NONE', *, *, #262, .F. ) ;
#312 = ORIENTED_EDGE ( 'NONE', *, *, #403, .F. ) ;
#313 = ORIENTED_EDGE ( 'NONE', *, *, #294, .F. ) ;
#314 = ORIENTED_EDGE ( 'NONE', *, *, #402, .F. ) ;
#315 = ORIENTED_EDGE ( 'NONE', *, *, #293, .T. ) ;
#316 = VERTEX_POINT ( 'NONE', #60 ) ;
#317 = VERTEX_POINT ( 'NONE', #157 ) ;
#318 = ORIENTED_EDGE ( 'NONE', *, *, #295, .F. ) ;
#319 = ORIENTED_EDGE ( 'NONE', *, *, #403, .T. ) ;
#320 = VERTEX_POINT ( 'NONE', #183 ) ;
#321 = VERTEX_POINT ( 'NONE', #149 ) ;
#322 = ORIENTED_EDGE ( 'NONE', *, *, #250, .F. ) ;
#323 = VERTEX_POINT ( 'NONE', #179 ) ;
#324 = ORIENTED_EDGE ( 'NONE', *, *, #404, .F. ) ;
#325 = VERTEX_POINT ( 'NONE', #135 ) ;
#326 = ORIENTED_EDGE ( 'NONE', *, *, #260, .T. ) ;
#327 = ORIENTED_EDGE ( 'NONE', *, *, #249, .T. ) ;
#328 = ORIENTED_EDGE ( 'NONE', *, *, #248, .F. ) ;
#329 = VERTEX_POINT ( 'NONE', #178 ) ;
#330 = ORIENTED_EDGE ( 'NONE', *, *, #287, .T. ) ;
#331 = EDGE_LOOP ( 'NONE', ( #319, #307 ) ) ;
#332 = VERTEX_POINT ( 'NONE', #51 ) ;
#333 = ORIENTED_EDGE ( 'NONE', *, *, #291, .T. ) ;
#334 = ORIENTED_EDGE ( 'NONE', *, *, #401, .T. ) ;
#335 = VERTEX_POINT ( 'NONE', #172 ) ;
#336 = ORIENTED_EDGE ( 'NONE', *, *, #288, .F. ) ;
#337 = ORIENTED_EDGE ( 'NONE', *, *, #289, .T. ) ;
#338 = ORIENTED_EDGE ( 'NONE', *, *, #290, .T. ) ;
#339 = ORIENTED_EDGE ( 'NONE', *, *, #262, .T. ) ;
#340 = ORIENTED_EDGE ( 'NONE', *, *, #284, .T. ) ;
#341 = VERTEX_POINT ( 'NONE', #160 ) ;
#342 = ORIENTED_EDGE ( 'NONE', *, *, #263, .F. ) ;
#343 = VERTEX_POINT ( 'NONE', #171 ) ;
#344 = ORIENTED_EDGE ( 'NONE', *, *, #259, .T. ) ;
#345 = ORIENTED_EDGE ( 'NONE', *, *, #286, .T. ) ;
#346 = VERTEX_POINT ( 'NONE', #156 ) ;
#347 = ADVANCED_FACE ( 'NONE', ( #358 ), #389, .F. ) ;
#348 = ADVANCED_FACE ( 'NONE', ( #375, #398 ), #151, .T. ) ;
#349 = ADVANCED_FACE ( 'NONE', ( #359 ), #397, .T. ) ;
#350 = ADVANCED_FACE ( 'NONE', ( #365 ), #382, .T. ) ;
#351 = ADVANCED_FACE ( 'NONE', ( #394 ), #391, .T. ) ;
#352 = ADVANCED_FACE ( 'NONE', ( #390 ), #164, .T. ) ;
#353 = ADVANCED_FACE ( 'NONE', ( #377 ), #165, .T. ) ;
#354 = ADVANCED_FACE ( 'NONE', ( #372 ), #384, .T. ) ;
#355 = ADVANCED_FACE ( 'NONE', ( #381 ), #366, .F. ) ;
#356 = ADVANCED_FACE ( 'NONE', ( #367 ), #380, .T. ) ;
#357 = VECTOR ( 'NONE', #64, 1000.000000000000000 ) ;
#358 = FACE_OUTER_BOUND ( 'NONE', #274, .T. ) ;
#359 = FACE_OUTER_BOUND ( 'NONE', #281, .T. ) ;
#360 = LINE ( 'NONE', #88, #357 ) ;
#361 = CIRCLE ( 'NONE', #21, 62.50000000000000000 ) ;
#362 = CIRCLE ( 'NONE', #22, 57.39999999999999900 ) ;
#363 = CIRCLE ( 'NONE', #4, 32.00000000000000000 ) ;
#364 = SURFACE_STYLE_FILL_AREA ( #109 ) ;
#365 = FACE_OUTER_BOUND ( 'NONE', #283, .T. ) ;
#366 = TOROIDAL_SURFACE ( 'NONE', #2, 62.39999999999999900, 4.999999999999999100 ) ;
#367 = FACE_OUTER_BOUND ( 'NONE', #277, .T. ) ;
#368 = CIRCLE ( 'NONE', #19, 62.50000000000000000 ) ;
#369 = VECTOR ( 'NONE', #144, 1000.000000000000000 ) ;
#370 = CIRCLE ( 'NONE', #23, 4.999999999999997300 ) ;
#371 = CIRCLE ( 'NONE', #239, 6.500000000000002700 ) ;
#372 = FACE_OUTER_BOUND ( 'NONE', #278, .T. ) ;
#373 = CIRCLE ( 'NONE', #20, 62.50000000000000000 ) ;
#374 = VECTOR ( 'NONE', #84, 1000.000000000000000 ) ;
#375 = FACE_BOUND ( 'NONE', #266, .T. ) ;
#376 = VECTOR ( 'NONE', #68, 1000.000000000000000 ) ;
#377 = FACE_OUTER_BOUND ( 'NONE', #304, .T. ) ;
#378 = CIRCLE ( 'NONE', #24, 62.39999999999999900 ) ;
#379 = LINE ( 'NONE', #134, #369 ) ;
#380 = CYLINDRICAL_SURFACE ( 'NONE', #7, 57.39999999999999900 ) ;
#381 = FACE_OUTER_BOUND ( 'NONE', #270, .T. ) ;
#382 = CYLINDRICAL_SURFACE ( 'NONE', #30, 57.39999999999999900 ) ;
#383 = CIRCLE ( 'NONE', #6, 32.00000000000000000 ) ;
#384 = CYLINDRICAL_SURFACE ( 'NONE', #5, 62.50000000000000000 ) ;
#385 = CIRCLE ( 'NONE', #240, 6.500000000000000900 ) ;
#386 = LINE ( 'NONE', #185, #374 ) ;
#387 = CIRCLE ( 'NONE', #25, 62.50000000000000000 ) ;
#388 = CIRCLE ( 'NONE', #8, 6.500000000000000900 ) ;
#389 = TOROIDAL_SURFACE ( 'NONE', #26, 62.39999999999999900, 4.999999999999999100 ) ;
#390 = FACE_OUTER_BOUND ( 'NONE', #331, .T. ) ;
#391 = TOROIDAL_SURFACE ( 'NONE', #28, 25.39999999999999900, 32.00000000000000000 ) ;
#392 = CIRCLE ( 'NONE', #296, 6.500000000000002700 ) ;
#393 = CIRCLE ( 'NONE', #238, 57.39999999999999900 ) ;
#394 = FACE_OUTER_BOUND ( 'NONE', #300, .T. ) ;
#395 = LINE ( 'NONE', #87, #376 ) ;
#396 = CIRCLE ( 'NONE', #9, 25.39999999999999500 ) ;
#397 = CYLINDRICAL_SURFACE ( 'NONE', #29, 62.50000000000000000 ) ;
#398 = FACE_OUTER_BOUND ( 'NONE', #282, .T. ) ;
#399 = VECTOR ( 'NONE', #138, 1000.000000000000000 ) ;
#400 = PRODUCT ( '038654_Anschlag-Puffer_Schwingmetall_ContiTech', '038654_Anschlag-Puffer_Schwingmetall_ContiTech', '', ( #44 ) ) ;
#401 = EDGE_CURVE ( 'NONE', #341, #343, #383, .T. ) ;
#402 = EDGE_CURVE ( 'NONE', #316, #302, #363, .T. ) ;
#403 = EDGE_CURVE ( 'NONE', #301, #310, #388, .T. ) ;
#404 = EDGE_CURVE ( 'NONE', #341, #316, #396, .T. ) ;
ENDSEC;
END-ISO-10303-21;
