ISO-10303-21;
HEADER;
FILE_DESCRIPTION (( 'STEP AP214' ),
    '1' );
FILE_NAME ('038653_Anschlag-Puffer_Schwingmetall_ContiTech.STEP',
    '2013-11-05T12:10:22',
    ( '' ),
    ( '' ),
    'SwSTEP 2.0',
    'SolidWorks 2012',
    '' );
FILE_SCHEMA (( 'AUTOMOTIVE_DESIGN' ));
ENDSEC;

DATA;
#1 = AXIS2_PLACEMENT_3D ( 'NONE', #41, #176, #38 ) ;
#2 = AXIS2_PLACEMENT_3D ( 'NONE', #26, #35, #34 ) ;
#3 = AXIS2_PLACEMENT_3D ( 'NONE', #22, #25, #20 ) ;
#4 = AXIS2_PLACEMENT_3D ( 'NONE', #51, #30, #42 ) ;
#5 = AXIS2_PLACEMENT_3D ( 'NONE', #54, #37, #32 ) ;
#6 = AXIS2_PLACEMENT_3D ( 'NONE', #172, #112, #47 ) ;
#7 = AXIS2_PLACEMENT_3D ( 'NONE', #43, #56, #49 ) ;
#8 = AXIS2_PLACEMENT_3D ( 'NONE', #89, #53, #55 ) ;
#9 =( GEOMETRIC_REPRESENTATION_CONTEXT ( 3 ) GLOBAL_UNCERTAINTY_ASSIGNED_CONTEXT ( ( #313 ) ) GLOBAL_UNIT_ASSIGNED_CONTEXT ( ( #64, #24, #69 ) ) REPRESENTATION_CONTEXT ( 'NONE', 'WORKASPACE' ) );
#10 = STYLED_ITEM ( 'NONE', ( #141 ), #314 ) ;
#11 = PRESENTATION_LAYER_ASSIGNMENT (  '', '', ( #10 ) ) ;
#12 = MECHANICAL_DESIGN_GEOMETRIC_PRESENTATION_REPRESENTATION (  '', ( #10 ), #13 ) ;
#13 =( GEOMETRIC_REPRESENTATION_CONTEXT ( 3 ) GLOBAL_UNCERTAINTY_ASSIGNED_CONTEXT ( ( #317 ) ) GLOBAL_UNIT_ASSIGNED_CONTEXT ( ( #138, #109, #72 ) ) REPRESENTATION_CONTEXT ( 'NONE', 'WORKASPACE' ) );
#14 = AXIS2_PLACEMENT_3D ( 'NONE', #75, #74, #77 ) ;
#15 = PRODUCT_DEFINITION ( 'UNKNOWN', '', #16, #377 ) ;
#16 = PRODUCT_DEFINITION_FORMATION_WITH_SPECIFIED_SOURCE ( 'ANY', '', #399, .NOT_KNOWN. ) ;
#17 = PRODUCT_RELATED_PRODUCT_CATEGORY ( 'part', '', ( #399 ) ) ;
#18 = CARTESIAN_POINT ( 'NONE',  ( 0.0000000000000000000, 11.60000000000000000, 0.0000000000000000000 ) ) ;
#19 = DIRECTION ( 'NONE',  ( 1.000000000000000000, 0.0000000000000000000, -1.224646799147353200E-016 ) ) ;
#20 = DIRECTION ( 'NONE',  ( 0.0000000000000000000, 0.0000000000000000000, -1.000000000000000000 ) ) ;
#21 = CARTESIAN_POINT ( 'NONE',  ( 5.082284216461516500E-015, 7.000000000000000000, 41.50000000000000700 ) ) ;
#22 = CARTESIAN_POINT ( 'NONE',  ( 0.0000000000000000000, 0.0000000000000000000, 0.0000000000000000000 ) ) ;
#23 = SURFACE_SIDE_STYLE ('',( #146 ) ) ;
#24 =( NAMED_UNIT ( * ) PLANE_ANGLE_UNIT ( ) SI_UNIT ( $, .RADIAN. ) );
#25 = DIRECTION ( 'NONE',  ( -0.0000000000000000000, -1.000000000000000000, -0.0000000000000000000 ) ) ;
#26 = CARTESIAN_POINT ( 'NONE',  ( 0.0000000000000000000, 0.0000000000000000000, 0.0000000000000000000 ) ) ;
#27 = CARTESIAN_POINT ( 'NONE',  ( 0.0000000000000000000, 7.000000000000000000, -41.50000000000000700 ) ) ;
#28 = DIRECTION ( 'NONE',  ( 0.0000000000000000000, 0.0000000000000000000, -1.000000000000000000 ) ) ;
#29 = DIRECTION ( 'NONE',  ( -0.0000000000000000000, -1.000000000000000000, -0.0000000000000000000 ) ) ;
#30 = DIRECTION ( 'NONE',  ( -0.0000000000000000000, -1.000000000000000000, -0.0000000000000000000 ) ) ;
#31 = DIRECTION ( 'NONE',  ( 0.0000000000000000000, 0.0000000000000000000, -1.000000000000000000 ) ) ;
#32 = DIRECTION ( 'NONE',  ( 0.0000000000000000000, -0.0000000000000000000, 1.000000000000000000 ) ) ;
#33 = DIRECTION ( 'NONE',  ( -0.0000000000000000000, -1.000000000000000000, -0.0000000000000000000 ) ) ;
#34 = DIRECTION ( 'NONE',  ( 0.0000000000000000000, 0.0000000000000000000, -1.000000000000000000 ) ) ;
#35 = DIRECTION ( 'NONE',  ( -0.0000000000000000000, -1.000000000000000000, -0.0000000000000000000 ) ) ;
#36 = PLANE ( 'NONE',  #310 ) ;
#37 = DIRECTION ( 'NONE',  ( 0.0000000000000000000, 1.000000000000000000, 0.0000000000000000000 ) ) ;
#38 = DIRECTION ( 'NONE',  ( 0.0000000000000000000, 0.0000000000000000000, -1.000000000000000000 ) ) ;
#39 = CARTESIAN_POINT ( 'NONE',  ( 0.0000000000000000000, 38.00000000000000000, 0.0000000000000000000 ) ) ;
#40 = CARTESIAN_POINT ( 'NONE',  ( 5.000000000000000900, 0.0000000000000000000, 0.0000000000000000000 ) ) ;
#41 = CARTESIAN_POINT ( 'NONE',  ( 0.0000000000000000000, 0.0000000000000000000, 0.0000000000000000000 ) ) ;
#42 = DIRECTION ( 'NONE',  ( 0.0000000000000000000, 0.0000000000000000000, -1.000000000000000000 ) ) ;
#43 = CARTESIAN_POINT ( 'NONE',  ( 0.0000000000000000000, 11.60000000000000000, 0.0000000000000000000 ) ) ;
#44 = DIRECTION ( 'NONE',  ( 0.0000000000000000000, 0.0000000000000000000, -1.000000000000000000 ) ) ;
#45 = DIRECTION ( 'NONE',  ( -0.0000000000000000000, -1.000000000000000000, -0.0000000000000000000 ) ) ;
#46 = DIRECTION ( 'NONE',  ( -0.0000000000000000000, -1.000000000000000000, -0.0000000000000000000 ) ) ;
#47 = DIRECTION ( 'NONE',  ( -1.224646799147353200E-016, 0.0000000000000000000, -1.000000000000000000 ) ) ;
#48 = DIRECTION ( 'NONE',  ( -0.0000000000000000000, -1.000000000000000000, -0.0000000000000000000 ) ) ;
#49 = DIRECTION ( 'NONE',  ( 0.0000000000000000000, 0.0000000000000000000, -1.000000000000000000 ) ) ;
#50 = CARTESIAN_POINT ( 'NONE',  ( 0.0000000000000000000, 6.999999999999999100, 0.0000000000000000000 ) ) ;
#51 = CARTESIAN_POINT ( 'NONE',  ( 0.0000000000000000000, 0.0000000000000000000, 0.0000000000000000000 ) ) ;
#52 = PLANE ( 'NONE',  #311 ) ;
#53 = DIRECTION ( 'NONE',  ( -0.0000000000000000000, -1.000000000000000000, -0.0000000000000000000 ) ) ;
#54 = CARTESIAN_POINT ( 'NONE',  ( 41.50000000000000700, 6.999999999999999100, 0.0000000000000000000 ) ) ;
#55 = DIRECTION ( 'NONE',  ( 0.0000000000000000000, 0.0000000000000000000, -1.000000000000000000 ) ) ;
#56 = DIRECTION ( 'NONE',  ( -0.0000000000000000000, -1.000000000000000000, -0.0000000000000000000 ) ) ;
#57 = DIRECTION ( 'NONE',  ( -0.0000000000000000000, -1.000000000000000000, -0.0000000000000000000 ) ) ;
#58 = DIRECTION ( 'NONE',  ( 0.0000000000000000000, 0.0000000000000000000, -1.000000000000000000 ) ) ;
#59 = DIRECTION ( 'NONE',  ( -1.000000000000000000, 0.0000000000000000000, 0.0000000000000000000 ) ) ;
#60 = SURFACE_STYLE_USAGE ( .BOTH. , #23 ) ;
#61 = DIRECTION ( 'NONE',  ( 0.0000000000000000000, 0.0000000000000000000, -1.000000000000000000 ) ) ;
#62 = CARTESIAN_POINT ( 'NONE',  ( 0.0000000000000000000, 0.0000000000000000000, 0.0000000000000000000 ) ) ;
#63 = CARTESIAN_POINT ( 'NONE',  ( 5.082284216461516500E-015, 0.0000000000000000000, 41.50000000000000700 ) ) ;
#64 =( LENGTH_UNIT ( ) NAMED_UNIT ( * ) SI_UNIT ( .MILLI., .METRE. ) );
#65 = DIRECTION ( 'NONE',  ( -0.0000000000000000000, -1.000000000000000000, -0.0000000000000000000 ) ) ;
#66 = APPLICATION_CONTEXT ( 'automotive_design' ) ;
#67 = DIRECTION ( 'NONE',  ( 0.0000000000000000000, 0.0000000000000000000, -1.000000000000000000 ) ) ;
#68 = PLANE ( 'NONE',  #5 ) ;
#69 =( NAMED_UNIT ( * ) SI_UNIT ( $, .STERADIAN. ) SOLID_ANGLE_UNIT ( ) );
#70 = DIRECTION ( 'NONE',  ( 0.0000000000000000000, -1.000000000000000000, -0.0000000000000000000 ) ) ;
#71 = DIRECTION ( 'NONE',  ( -0.0000000000000000000, -1.000000000000000000, -0.0000000000000000000 ) ) ;
#72 =( NAMED_UNIT ( * ) SI_UNIT ( $, .STERADIAN. ) SOLID_ANGLE_UNIT ( ) );
#73 = CARTESIAN_POINT ( 'NONE',  ( 0.0000000000000000000, 6.999999999999999100, 0.0000000000000000000 ) ) ;
#74 = DIRECTION ( 'NONE',  ( 0.0000000000000000000, 0.0000000000000000000, 1.000000000000000000 ) ) ;
#75 = CARTESIAN_POINT ( 'NONE',  ( 0.0000000000000000000, 0.0000000000000000000, 0.0000000000000000000 ) ) ;
#76 = DIRECTION ( 'NONE',  ( 0.0000000000000000000, 0.0000000000000000000, -1.000000000000000000 ) ) ;
#77 = DIRECTION ( 'NONE',  ( 1.000000000000000000, 0.0000000000000000000, 0.0000000000000000000 ) ) ;
#78 = PRODUCT_CONTEXT ( 'NONE', #66, 'mechanical' ) ;
#79 = APPLICATION_CONTEXT ( 'automotive_design' ) ;
#80 = APPLICATION_PROTOCOL_DEFINITION ( 'draft international standard', 'automotive_design', 1998, #79 ) ;
#81 = CARTESIAN_POINT ( 'NONE',  ( 5.000000000000000000, 11.60000000000000000, 0.0000000000000000000 ) ) ;
#82 = DIRECTION ( 'NONE',  ( 0.0000000000000000000, -1.000000000000000000, -0.0000000000000000000 ) ) ;
#83 = PLANE ( 'NONE',  #190 ) ;
#84 = CARTESIAN_POINT ( 'NONE',  ( 5.070037748470043200E-015, 11.00000000000000000, 41.40000000000000600 ) ) ;
#85 = CARTESIAN_POINT ( 'NONE',  ( 0.0000000000000000000, 0.0000000000000000000, -5.000000000000000900 ) ) ;
#86 = DIRECTION ( 'NONE',  ( -1.000000000000000000, 0.0000000000000000000, 0.0000000000000000000 ) ) ;
#87 = CARTESIAN_POINT ( 'NONE',  ( 0.0000000000000000000, 11.00000000000000000, -41.40000000000000600 ) ) ;
#88 = CARTESIAN_POINT ( 'NONE',  ( 4.580179028811101800E-015, 0.0000000000000000000, 37.40000000000000600 ) ) ;
#89 = CARTESIAN_POINT ( 'NONE',  ( 0.0000000000000000000, 60.00000000000000000, 0.0000000000000000000 ) ) ;
#90 = DIRECTION ( 'NONE',  ( -0.0000000000000000000, -1.000000000000000000, -0.0000000000000000000 ) ) ;
#91 = DIRECTION ( 'NONE',  ( 0.0000000000000000000, 0.0000000000000000000, -1.000000000000000000 ) ) ;
#92 = CARTESIAN_POINT ( 'NONE',  ( 0.0000000000000000000, 38.00000000000000000, -15.40000000000000400 ) ) ;
#93 = CARTESIAN_POINT ( 'NONE',  ( 0.0000000000000000000, 38.00000000000000000, 0.0000000000000000000 ) ) ;
#94 = DIRECTION ( 'NONE',  ( -0.0000000000000000000, -1.000000000000000000, -0.0000000000000000000 ) ) ;
#95 = DIRECTION ( 'NONE',  ( 0.0000000000000000000, 0.0000000000000000000, -1.000000000000000000 ) ) ;
#96 = DIRECTION ( 'NONE',  ( -0.0000000000000000000, -1.000000000000000000, -0.0000000000000000000 ) ) ;
#97 = DIRECTION ( 'NONE',  ( 0.0000000000000000000, 0.0000000000000000000, -1.000000000000000000 ) ) ;
#98 = DIRECTION ( 'NONE',  ( -0.0000000000000000000, -1.000000000000000000, -0.0000000000000000000 ) ) ;
#99 = CARTESIAN_POINT ( 'NONE',  ( 0.0000000000000000000, 0.0000000000000000000, 0.0000000000000000000 ) ) ;
#100 = CARTESIAN_POINT ( 'NONE',  ( 0.0000000000000000000, 11.60000000000000000, -5.000000000000000000 ) ) ;
#101 = DIRECTION ( 'NONE',  ( 0.0000000000000000000, 0.0000000000000000000, 1.000000000000000000 ) ) ;
#102 = CARTESIAN_POINT ( 'NONE',  ( 0.0000000000000000000, 0.0000000000000000000, -37.40000000000000600 ) ) ;
#103 = DIRECTION ( 'NONE',  ( -0.0000000000000000000, -1.000000000000000000, -0.0000000000000000000 ) ) ;
#104 = DIRECTION ( 'NONE',  ( -0.0000000000000000000, -1.000000000000000000, -0.0000000000000000000 ) ) ;
#105 = DIRECTION ( 'NONE',  ( 0.0000000000000000000, 0.0000000000000000000, -1.000000000000000000 ) ) ;
#106 = CARTESIAN_POINT ( 'NONE',  ( 0.0000000000000000000, 11.00000000000000000, 0.0000000000000000000 ) ) ;
#107 = DIRECTION ( 'NONE',  ( 0.0000000000000000000, 0.0000000000000000000, -1.000000000000000000 ) ) ;
#108 = DIRECTION ( 'NONE',  ( 0.0000000000000000000, 0.0000000000000000000, -1.000000000000000000 ) ) ;
#109 =( NAMED_UNIT ( * ) PLANE_ANGLE_UNIT ( ) SI_UNIT ( $, .RADIAN. ) );
#110 = DIRECTION ( 'NONE',  ( -0.0000000000000000000, -1.000000000000000000, -0.0000000000000000000 ) ) ;
#111 = CARTESIAN_POINT ( 'NONE',  ( 0.0000000000000000000, 38.00000000000000000, 0.0000000000000000000 ) ) ;
#112 = DIRECTION ( 'NONE',  ( 1.000000000000000000, 0.0000000000000000000, -1.224646799147353200E-016 ) ) ;
#113 = DIRECTION ( 'NONE',  ( -0.0000000000000000000, -1.000000000000000000, -0.0000000000000000000 ) ) ;
#114 = DIRECTION ( 'NONE',  ( 0.0000000000000000000, 0.0000000000000000000, -1.000000000000000000 ) ) ;
#115 = DIRECTION ( 'NONE',  ( -0.0000000000000000000, -1.000000000000000000, -0.0000000000000000000 ) ) ;
#116 = FILL_AREA_STYLE_COLOUR ( '', #144 ) ;
#117 = CARTESIAN_POINT ( 'NONE',  ( 0.0000000000000000000, 0.0000000000000000000, -41.50000000000000700 ) ) ;
#118 = CARTESIAN_POINT ( 'NONE',  ( 0.0000000000000000000, 0.0000000000000000000, -41.50000000000000700 ) ) ;
#119 = DIRECTION ( 'NONE',  ( -0.0000000000000000000, -1.000000000000000000, -0.0000000000000000000 ) ) ;
#120 = FILL_AREA_STYLE ('',( #116 ) ) ;
#121 = CARTESIAN_POINT ( 'NONE',  ( 0.0000000000000000000, 11.00000000000000000, 0.0000000000000000000 ) ) ;
#122 = CARTESIAN_POINT ( 'NONE',  ( 0.0000000000000000000, 0.0000000000000000000, 0.0000000000000000000 ) ) ;
#123 = APPLICATION_PROTOCOL_DEFINITION ( 'draft international standard', 'automotive_design', 1998, #66 ) ;
#124 = DIRECTION ( 'NONE',  ( -0.0000000000000000000, -1.000000000000000000, -0.0000000000000000000 ) ) ;
#125 = CARTESIAN_POINT ( 'NONE',  ( 0.0000000000000000000, 11.00000000000000000, -37.40000000000000600 ) ) ;
#126 = CARTESIAN_POINT ( 'NONE',  ( 0.0000000000000000000, 38.00000000000000000, -37.40000000000000600 ) ) ;
#127 = CIRCLE ( 'NONE', #6, 21.99999999999999600 ) ;
#128 = CARTESIAN_POINT ( 'NONE',  ( 5.070037748470043200E-015, 6.999999999999998200, 41.40000000000000600 ) ) ;
#129 = DIRECTION ( 'NONE',  ( 0.0000000000000000000, 0.0000000000000000000, 1.000000000000000000 ) ) ;
#130 = DIRECTION ( 'NONE',  ( -0.0000000000000000000, -1.000000000000000000, -0.0000000000000000000 ) ) ;
#131 = CYLINDRICAL_SURFACE ( 'NONE', #4, 37.40000000000000600 ) ;
#132 = CIRCLE ( 'NONE', #312, 21.99999999999999600 ) ;
#133 = DIRECTION ( 'NONE',  ( 0.0000000000000000000, 1.000000000000000000, 0.0000000000000000000 ) ) ;
#135 = CARTESIAN_POINT ( 'NONE',  ( 4.580179028811101800E-015, 11.00000000000000000, 37.40000000000000600 ) ) ;
#134 = CIRCLE ( 'NONE', #7, 5.000000000000000000 ) ;
#136 = CIRCLE ( 'NONE', #8, 15.40000000000000200 ) ;
#137 = CARTESIAN_POINT ( 'NONE',  ( 0.0000000000000000000, 0.0000000000000000000, 0.0000000000000000000 ) ) ;
#138 =( LENGTH_UNIT ( ) NAMED_UNIT ( * ) SI_UNIT ( .MILLI., .METRE. ) );
#139 = LINE ( 'NONE', #102, #142 ) ;
#140 = FILL_AREA_STYLE_COLOUR ( '', #347 ) ;
#141 = PRESENTATION_STYLE_ASSIGNMENT (( #60 ) ) ;
#142 = VECTOR ( 'NONE', #71, 1000.000000000000000 ) ;
#143 = DIRECTION ( 'NONE',  ( 0.0000000000000000000, 0.0000000000000000000, -1.000000000000000000 ) ) ;
#145 = DIRECTION ( 'NONE',  ( -0.0000000000000000000, -1.000000000000000000, -0.0000000000000000000 ) ) ;
#144 = COLOUR_RGB ( '',0.7529411764705882200, 0.7529411764705882200, 0.7529411764705882200 ) ;
#146 = SURFACE_STYLE_FILL_AREA ( #120 ) ;
#147 = FACE_OUTER_BOUND ( 'NONE', #297, .T. ) ;
#148 = CARTESIAN_POINT ( 'NONE',  ( 0.0000000000000000000, 0.0000000000000000000, -5.000000000000000900 ) ) ;
#149 = CARTESIAN_POINT ( 'NONE',  ( 0.0000000000000000000, 7.000000000000000000, 0.0000000000000000000 ) ) ;
#150 = DIRECTION ( 'NONE',  ( 0.0000000000000000000, 0.0000000000000000000, -1.000000000000000000 ) ) ;
#151 = DIRECTION ( 'NONE',  ( -0.0000000000000000000, -1.000000000000000000, -0.0000000000000000000 ) ) ;
#152 = CARTESIAN_POINT ( 'NONE',  ( 0.0000000000000000000, 11.00000000000000000, 0.0000000000000000000 ) ) ;
#153 = CARTESIAN_POINT ( 'NONE',  ( 0.0000000000000000000, 0.0000000000000000000, 0.0000000000000000000 ) ) ;
#154 = CARTESIAN_POINT ( 'NONE',  ( 0.0000000000000000000, 38.00000000000000000, 0.0000000000000000000 ) ) ;
#155 = DIRECTION ( 'NONE',  ( -0.0000000000000000000, -1.000000000000000000, -0.0000000000000000000 ) ) ;
#156 = CARTESIAN_POINT ( 'NONE',  ( 0.0000000000000000000, 6.999999999999998200, -41.40000000000000600 ) ) ;
#157 = CARTESIAN_POINT ( 'NONE',  ( 15.40000000000000000, 60.00000000000000000, 0.0000000000000000000 ) ) ;
#158 = SURFACE_SIDE_STYLE ('',( #356 ) ) ;
#159 = FILL_AREA_STYLE ('',( #140 ) ) ;
#160 = CARTESIAN_POINT ( 'NONE',  ( 0.0000000000000000000, 0.0000000000000000000, 0.0000000000000000000 ) ) ;
#161 = DIRECTION ( 'NONE',  ( -1.224646799147353500E-016, 0.0000000000000000000, -1.000000000000000000 ) ) ;
#162 = CARTESIAN_POINT ( 'NONE',  ( 4.580179028811101000E-015, 38.00000000000000000, 37.40000000000000600 ) ) ;
#163 = DIRECTION ( 'NONE',  ( 0.0000000000000000000, 0.0000000000000000000, -1.000000000000000000 ) ) ;
#164 = DIRECTION ( 'NONE',  ( -0.0000000000000000000, -1.000000000000000000, -0.0000000000000000000 ) ) ;
#165 = DIRECTION ( 'NONE',  ( 0.0000000000000000000, 0.0000000000000000000, -1.000000000000000000 ) ) ;
#166 = CARTESIAN_POINT ( 'NONE',  ( 0.0000000000000000000, 60.00000000000000000, 0.0000000000000000000 ) ) ;
#167 =( NAMED_UNIT ( * ) SI_UNIT ( $, .STERADIAN. ) SOLID_ANGLE_UNIT ( ) );
#168 = CARTESIAN_POINT ( 'NONE',  ( 6.123233995736766300E-016, 11.60000000000000000, 5.000000000000000000 ) ) ;
#169 =( NAMED_UNIT ( * ) PLANE_ANGLE_UNIT ( ) SI_UNIT ( $, .RADIAN. ) );
#170 =( LENGTH_UNIT ( ) NAMED_UNIT ( * ) SI_UNIT ( .MILLI., .METRE. ) );
#171 = SURFACE_STYLE_USAGE ( .BOTH. , #158 ) ;
#172 = CARTESIAN_POINT ( 'NONE',  ( 1.885956070686924600E-015, 38.00000000000000000, 15.40000000000000400 ) ) ;
#173 = DIRECTION ( 'NONE',  ( 0.0000000000000000000, 0.0000000000000000000, -1.000000000000000000 ) ) ;
#174 = CARTESIAN_POINT ( 'NONE',  ( 5.082284216461516500E-015, 0.0000000000000000000, 41.50000000000000700 ) ) ;
#175 = CARTESIAN_POINT ( 'NONE',  ( 0.0000000000000000000, 60.00000000000000000, -15.40000000000000200 ) ) ;
#176 = DIRECTION ( 'NONE',  ( -0.0000000000000000000, -1.000000000000000000, -0.0000000000000000000 ) ) ;
#177 = DIRECTION ( 'NONE',  ( 0.0000000000000000000, 0.0000000000000000000, -1.000000000000000000 ) ) ;
#178 = CARTESIAN_POINT ( 'NONE',  ( 0.0000000000000000000, 11.00000000000000000, 0.0000000000000000000 ) ) ;
#179 = DIRECTION ( 'NONE',  ( -0.0000000000000000000, -1.000000000000000000, -0.0000000000000000000 ) ) ;
#180 = DIRECTION ( 'NONE',  ( 0.0000000000000000000, 0.0000000000000000000, -1.000000000000000000 ) ) ;
#181 = CARTESIAN_POINT ( 'NONE',  ( 3.233067549749013600E-015, 60.00000000000000000, 15.40000000000000400 ) ) ;
#182 = DIRECTION ( 'NONE',  ( 0.0000000000000000000, -0.0000000000000000000, 1.000000000000000000 ) ) ;
#183 = CARTESIAN_POINT ( 'NONE',  ( 6.123233995736767300E-016, 0.0000000000000000000, 5.000000000000000900 ) ) ;
#184 = DIRECTION ( 'NONE',  ( -0.0000000000000000000, -1.000000000000000000, -0.0000000000000000000 ) ) ;
#185 = CARTESIAN_POINT ( 'NONE',  ( 0.0000000000000000000, 7.000000000000000000, 0.0000000000000000000 ) ) ;
#186 = DIRECTION ( 'NONE',  ( 0.0000000000000000000, 0.0000000000000000000, -1.000000000000000000 ) ) ;
#187 = CARTESIAN_POINT ( 'NONE',  ( 6.123233995736767300E-016, 0.0000000000000000000, 5.000000000000000900 ) ) ;
#188 = SHAPE_DEFINITION_REPRESENTATION ( #378, #314 ) ;
#189 = AXIS2_PLACEMENT_3D ( 'NONE', #50, #33, #76 ) ;
#190 = AXIS2_PLACEMENT_3D ( 'NONE', #81, #82, #95 ) ;
#191 = AXIS2_PLACEMENT_3D ( 'NONE', #39, #45, #58 ) ;
#192 = AXIS2_PLACEMENT_3D ( 'NONE', #153, #119, #108 ) ;
#193 = AXIS2_PLACEMENT_3D ( 'NONE', #84, #19, #161 ) ;
#194 = STYLED_ITEM ( 'NONE', ( #341 ), #315 ) ;
#195 = PRESENTATION_LAYER_ASSIGNMENT (  '', '', ( #194 ) ) ;
#196 = MECHANICAL_DESIGN_GEOMETRIC_PRESENTATION_REPRESENTATION (  '', ( #194 ), #197 ) ;
#197 =( GEOMETRIC_REPRESENTATION_CONTEXT ( 3 ) GLOBAL_UNCERTAINTY_ASSIGNED_CONTEXT ( ( #316 ) ) GLOBAL_UNIT_ASSIGNED_CONTEXT ( ( #170, #169, #167 ) ) REPRESENTATION_CONTEXT ( 'NONE', 'WORKASPACE' ) );
#198 = AXIS2_PLACEMENT_3D ( 'NONE', #99, #98, #97 ) ;
#199 = AXIS2_PLACEMENT_3D ( 'NONE', #149, #145, #143 ) ;
#200 = AXIS2_PLACEMENT_3D ( 'NONE', #166, #164, #163 ) ;
#201 = AXIS2_PLACEMENT_3D ( 'NONE', #93, #96, #31 ) ;
#202 = AXIS2_PLACEMENT_3D ( 'NONE', #87, #86, #129 ) ;
#203 = AXIS2_PLACEMENT_3D ( 'NONE', #122, #115, #114 ) ;
#204 = FACE_OUTER_BOUND ( 'NONE', #271, .T. ) ;
#205 = FACE_OUTER_BOUND ( 'NONE', #287, .T. ) ;
#206 = CIRCLE ( 'NONE', #304, 37.40000000000000600 ) ;
#207 = TOROIDAL_SURFACE ( 'NONE', #308, 41.40000000000000600, 4.000000000000001800 ) ;
#208 = CIRCLE ( 'NONE', #307, 41.50000000000000700 ) ;
#209 = VECTOR ( 'NONE', #103, 1000.000000000000000 ) ;
#210 = CIRCLE ( 'NONE', #302, 37.40000000000000600 ) ;
#211 = CIRCLE ( 'NONE', #306, 5.000000000000000000 ) ;
#212 = VECTOR ( 'NONE', #179, 1000.000000000000000 ) ;
#213 = LINE ( 'NONE', #117, #209 ) ;
#214 = CIRCLE ( 'NONE', #303, 41.40000000000000600 ) ;
#215 = VECTOR ( 'NONE', #113, 1000.000000000000000 ) ;
#216 = CYLINDRICAL_SURFACE ( 'NONE', #309, 5.000000000000000900 ) ;
#217 = FACE_OUTER_BOUND ( 'NONE', #269, .T. ) ;
#218 = LINE ( 'NONE', #148, #215 ) ;
#219 = FACE_BOUND ( 'NONE', #276, .T. ) ;
#220 = VECTOR ( 'NONE', #124, 1000.000000000000000 ) ;
#221 = LINE ( 'NONE', #183, #212 ) ;
#222 = FACE_OUTER_BOUND ( 'NONE', #296, .T. ) ;
#223 = FACE_BOUND ( 'NONE', #259, .T. ) ;
#224 = FACE_OUTER_BOUND ( 'NONE', #281, .T. ) ;
#225 = CYLINDRICAL_SURFACE ( 'NONE', #2, 37.40000000000000600 ) ;
#226 = CYLINDRICAL_SURFACE ( 'NONE', #1, 5.000000000000000900 ) ;
#227 = CIRCLE ( 'NONE', #305, 5.000000000000000900 ) ;
#228 = FACE_OUTER_BOUND ( 'NONE', #277, .T. ) ;
#229 = CIRCLE ( 'NONE', #301, 37.40000000000000600 ) ;
#230 = LINE ( 'NONE', #88, #220 ) ;
#231 = CYLINDRICAL_SURFACE ( 'NONE', #3, 41.50000000000000700 ) ;
#232 = FACE_OUTER_BOUND ( 'NONE', #268, .T. ) ;
#233 = FACE_OUTER_BOUND ( 'NONE', #272, .T. ) ;
#234 = ADVANCED_FACE ( 'NONE', ( #352 ), #335, .T. ) ;
#235 = ADVANCED_FACE ( 'NONE', ( #344 ), #397, .F. ) ;
#236 = ADVANCED_FACE ( 'NONE', ( #346 ), #333, .T. ) ;
#237 = ADVANCED_FACE ( 'NONE', ( #357 ), #83, .T. ) ;
#238 = ADVANCED_FACE ( 'NONE', ( #343 ), #325, .T. ) ;
#239 = EDGE_CURVE ( 'NONE', #338, #337, #332, .T. ) ;
#240 = EDGE_CURVE ( 'NONE', #349, #351, #362, .T. ) ;
#241 = EDGE_CURVE ( 'NONE', #337, #359, #336, .T. ) ;
#242 = ORIENTED_EDGE ( 'NONE', *, *, #240, .F. ) ;
#243 = ORIENTED_EDGE ( 'NONE', *, *, #402, .F. ) ;
#244 = ORIENTED_EDGE ( 'NONE', *, *, #370, .F. ) ;
#245 = ORIENTED_EDGE ( 'NONE', *, *, #369, .F. ) ;
#246 = ORIENTED_EDGE ( 'NONE', *, *, #318, .T. ) ;
#247 = ORIENTED_EDGE ( 'NONE', *, *, #321, .T. ) ;
#248 = ORIENTED_EDGE ( 'NONE', *, *, #318, .F. ) ;
#249 = ORIENTED_EDGE ( 'NONE', *, *, #371, .T. ) ;
#250 = ORIENTED_EDGE ( 'NONE', *, *, #366, .F. ) ;
#251 = ORIENTED_EDGE ( 'NONE', *, *, #240, .T. ) ;
#252 = ORIENTED_EDGE ( 'NONE', *, *, #241, .T. ) ;
#253 = ORIENTED_EDGE ( 'NONE', *, *, #322, .T. ) ;
#254 = ORIENTED_EDGE ( 'NONE', *, *, #319, .F. ) ;
#255 = EDGE_LOOP ( 'NONE', ( #274, #398, #299, #390 ) ) ;
#256 = ORIENTED_EDGE ( 'NONE', *, *, #241, .F. ) ;
#257 = ORIENTED_EDGE ( 'NONE', *, *, #373, .F. ) ;
#258 = EDGE_LOOP ( 'NONE', ( #250, #252, #394, #267 ) ) ;
#259 = EDGE_LOOP ( 'NONE', ( #278, #290 ) ) ;
#260 = ORIENTED_EDGE ( 'NONE', *, *, #320, .T. ) ;
#261 = EDGE_LOOP ( 'NONE', ( #295, #260, #285, #273 ) ) ;
#262 = EDGE_LOOP ( 'NONE', ( #391, #284 ) ) ;
#263 = ORIENTED_EDGE ( 'NONE', *, *, #368, .T. ) ;
#264 = ORIENTED_EDGE ( 'NONE', *, *, #369, .T. ) ;
#265 = ORIENTED_EDGE ( 'NONE', *, *, #363, .F. ) ;
#266 = ORIENTED_EDGE ( 'NONE', *, *, #324, .F. ) ;
#267 = ORIENTED_EDGE ( 'NONE', *, *, #322, .F. ) ;
#268 = EDGE_LOOP ( 'NONE', ( #288, #279, #392, #300 ) ) ;
#269 = EDGE_LOOP ( 'NONE', ( #282, #251 ) ) ;
#270 = ORIENTED_EDGE ( 'NONE', *, *, #370, .T. ) ;
#271 = EDGE_LOOP ( 'NONE', ( #286, #270, #264, #389 ) ) ;
#272 = EDGE_LOOP ( 'NONE', ( #395, #396, #294, #291 ) ) ;
#273 = ORIENTED_EDGE ( 'NONE', *, *, #321, .F. ) ;
#274 = ORIENTED_EDGE ( 'NONE', *, *, #404, .T. ) ;
#275 = ORIENTED_EDGE ( 'NONE', *, *, #365, .F. ) ;
#276 = EDGE_LOOP ( 'NONE', ( #248, #245 ) ) ;
#277 = EDGE_LOOP ( 'NONE', ( #393, #293 ) ) ;
#278 = ORIENTED_EDGE ( 'NONE', *, *, #239, .T. ) ;
#279 = ORIENTED_EDGE ( 'NONE', *, *, #324, .T. ) ;
#280 = ORIENTED_EDGE ( 'NONE', *, *, #319, .T. ) ;
#281 = EDGE_LOOP ( 'NONE', ( #244, #243, #249, #246 ) ) ;
#282 = ORIENTED_EDGE ( 'NONE', *, *, #323, .T. ) ;
#283 = ORIENTED_EDGE ( 'NONE', *, *, #364, .T. ) ;
#284 = ORIENTED_EDGE ( 'NONE', *, *, #372, .T. ) ;
#285 = ORIENTED_EDGE ( 'NONE', *, *, #400, .T. ) ;
#286 = ORIENTED_EDGE ( 'NONE', *, *, #372, .F. ) ;
#287 = EDGE_LOOP ( 'NONE', ( #256, #289, #253, #283 ) ) ;
#288 = ORIENTED_EDGE ( 'NONE', *, *, #373, .T. ) ;
#289 = ORIENTED_EDGE ( 'NONE', *, *, #239, .F. ) ;
#290 = ORIENTED_EDGE ( 'NONE', *, *, #366, .T. ) ;
#291 = ORIENTED_EDGE ( 'NONE', *, *, #403, .F. ) ;
#292 = ORIENTED_EDGE ( 'NONE', *, *, #403, .T. ) ;
#293 = ORIENTED_EDGE ( 'NONE', *, *, #320, .F. ) ;
#294 = ORIENTED_EDGE ( 'NONE', *, *, #364, .F. ) ;
#295 = ORIENTED_EDGE ( 'NONE', *, *, #401, .F. ) ;
#296 = EDGE_LOOP ( 'NONE', ( #275, #247, #292, #265 ) ) ;
#297 = EDGE_LOOP ( 'NONE', ( #257, #254 ) ) ;
#298 = EDGE_LOOP ( 'NONE', ( #266, #280, #263, #242 ) ) ;
#299 = ORIENTED_EDGE ( 'NONE', *, *, #367, .F. ) ;
#300 = ORIENTED_EDGE ( 'NONE', *, *, #368, .F. ) ;
#301 = AXIS2_PLACEMENT_3D ( 'NONE', #152, #151, #150 ) ;
#302 = AXIS2_PLACEMENT_3D ( 'NONE', #106, #65, #61 ) ;
#303 = AXIS2_PLACEMENT_3D ( 'NONE', #73, #29, #180 ) ;
#304 = AXIS2_PLACEMENT_3D ( 'NONE', #111, #110, #105 ) ;
#305 = AXIS2_PLACEMENT_3D ( 'NONE', #137, #57, #28 ) ;
#306 = AXIS2_PLACEMENT_3D ( 'NONE', #18, #48, #186 ) ;
#307 = AXIS2_PLACEMENT_3D ( 'NONE', #185, #155, #44 ) ;
#308 = AXIS2_PLACEMENT_3D ( 'NONE', #178, #90, #67 ) ;
#309 = AXIS2_PLACEMENT_3D ( 'NONE', #62, #184, #165 ) ;
#310 = AXIS2_PLACEMENT_3D ( 'NONE', #40, #70, #177 ) ;
#311 = AXIS2_PLACEMENT_3D ( 'NONE', #157, #133, #182 ) ;
#312 = AXIS2_PLACEMENT_3D ( 'NONE', #92, #59, #101 ) ;
#313 = UNCERTAINTY_MEASURE_WITH_UNIT (LENGTH_MEASURE( 1.000000000000000100E-005 ), #64, 'distance_accuracy_value', 'NONE');
#314 = ADVANCED_BREP_SHAPE_REPRESENTATION ( '038653_Anschlag-Puffer_Schwingmetall_ContiTech', ( #315, #14 ), #9 ) ;
#315 = MANIFOLD_SOLID_BREP ( 'Rotation1', #388 ) ;
#316 = UNCERTAINTY_MEASURE_WITH_UNIT (LENGTH_MEASURE( 1.000000000000000100E-005 ), #170, 'distance_accuracy_value', 'NONE');
#317 = UNCERTAINTY_MEASURE_WITH_UNIT (LENGTH_MEASURE( 1.000000000000000100E-005 ), #138, 'distance_accuracy_value', 'NONE');
#318 = EDGE_CURVE ( 'NONE', #329, #328, #358, .T. ) ;
#319 = EDGE_CURVE ( 'NONE', #326, #327, #354, .T. ) ;
#320 = EDGE_CURVE ( 'NONE', #361, #339, #355, .T. ) ;
#321 = EDGE_CURVE ( 'NONE', #330, #331, #360, .T. ) ;
#322 = EDGE_CURVE ( 'NONE', #338, #350, #342, .T. ) ;
#323 = EDGE_CURVE ( 'NONE', #351, #349, #340, .T. ) ;
#324 = EDGE_CURVE ( 'NONE', #326, #349, #353, .T. ) ;
#325 = TOROIDAL_SURFACE ( 'NONE', #191, 15.40000000000000400, 21.99999999999999600 ) ;
#326 = VERTEX_POINT ( 'NONE', #21 ) ;
#327 = VERTEX_POINT ( 'NONE', #27 ) ;
#328 = VERTEX_POINT ( 'NONE', #187 ) ;
#329 = VERTEX_POINT ( 'NONE', #85 ) ;
#330 = VERTEX_POINT ( 'NONE', #162 ) ;
#331 = VERTEX_POINT ( 'NONE', #126 ) ;
#332 = CIRCLE ( 'NONE', #189, 41.40000000000000600 ) ;
#333 = TOROIDAL_SURFACE ( 'NONE', #376, 15.40000000000000400, 21.99999999999999600 ) ;
#334 = VERTEX_POINT ( 'NONE', #168 ) ;
#335 = CYLINDRICAL_SURFACE ( 'NONE', #375, 41.50000000000000700 ) ;
#336 = CIRCLE ( 'NONE', #193, 4.000000000000003600 ) ;
#337 = VERTEX_POINT ( 'NONE', #128 ) ;
#338 = VERTEX_POINT ( 'NONE', #156 ) ;
#339 = VERTEX_POINT ( 'NONE', #175 ) ;
#340 = CIRCLE ( 'NONE', #203, 41.50000000000000700 ) ;
#341 = PRESENTATION_STYLE_ASSIGNMENT (( #171 ) ) ;
#342 = CIRCLE ( 'NONE', #202, 4.000000000000003600 ) ;
#343 = FACE_OUTER_BOUND ( 'NONE', #255, .T. ) ;
#344 = FACE_OUTER_BOUND ( 'NONE', #258, .T. ) ;
#345 = VERTEX_POINT ( 'NONE', #100 ) ;
#346 = FACE_OUTER_BOUND ( 'NONE', #261, .T. ) ;
#347 = COLOUR_RGB ( '',0.7529411764705882200, 0.7529411764705882200, 0.7529411764705882200 ) ;
#348 = VECTOR ( 'NONE', #104, 1000.000000000000000 ) ;
#349 = VERTEX_POINT ( 'NONE', #174 ) ;
#350 = VERTEX_POINT ( 'NONE', #125 ) ;
#351 = VERTEX_POINT ( 'NONE', #118 ) ;
#352 = FACE_OUTER_BOUND ( 'NONE', #298, .T. ) ;
#353 = LINE ( 'NONE', #63, #348 ) ;
#354 = CIRCLE ( 'NONE', #199, 41.50000000000000700 ) ;
#355 = CIRCLE ( 'NONE', #200, 15.40000000000000200 ) ;
#356 = SURFACE_STYLE_FILL_AREA ( #159 ) ;
#357 = FACE_OUTER_BOUND ( 'NONE', #262, .T. ) ;
#358 = CIRCLE ( 'NONE', #198, 5.000000000000000900 ) ;
#359 = VERTEX_POINT ( 'NONE', #135 ) ;
#360 = CIRCLE ( 'NONE', #201, 37.40000000000000600 ) ;
#361 = VERTEX_POINT ( 'NONE', #181 ) ;
#362 = CIRCLE ( 'NONE', #192, 41.50000000000000700 ) ;
#363 = EDGE_CURVE ( 'NONE', #359, #350, #229, .T. ) ;
#364 = EDGE_CURVE ( 'NONE', #350, #359, #210, .T. ) ;
#365 = EDGE_CURVE ( 'NONE', #330, #359, #230, .T. ) ;
#366 = EDGE_CURVE ( 'NONE', #337, #338, #214, .T. ) ;
#367 = EDGE_CURVE ( 'NONE', #331, #330, #206, .T. ) ;
#368 = EDGE_CURVE ( 'NONE', #327, #351, #213, .T. ) ;
#369 = EDGE_CURVE ( 'NONE', #328, #329, #227, .T. ) ;
#370 = EDGE_CURVE ( 'NONE', #334, #328, #221, .T. ) ;
#371 = EDGE_CURVE ( 'NONE', #345, #329, #218, .T. ) ;
#372 = EDGE_CURVE ( 'NONE', #334, #345, #211, .T. ) ;
#373 = EDGE_CURVE ( 'NONE', #327, #326, #208, .T. ) ;
#374 = AXIS2_PLACEMENT_3D ( 'NONE', #121, #130, #91 ) ;
#375 = AXIS2_PLACEMENT_3D ( 'NONE', #160, #94, #173 ) ;
#376 = AXIS2_PLACEMENT_3D ( 'NONE', #154, #46, #107 ) ;
#377 = PRODUCT_DEFINITION_CONTEXT ( 'detailed design', #79, 'design' ) ;
#378 = PRODUCT_DEFINITION_SHAPE ( 'NONE', 'NONE',  #15 ) ;
#379 = ADVANCED_FACE ( 'NONE', ( #204 ), #216, .F. ) ;
#380 = ADVANCED_FACE ( 'NONE', ( #205 ), #207, .F. ) ;
#381 = ADVANCED_FACE ( 'NONE', ( #217, #219 ), #36, .T. ) ;
#382 = ADVANCED_FACE ( 'NONE', ( #228 ), #52, .T. ) ;
#383 = ADVANCED_FACE ( 'NONE', ( #224 ), #226, .F. ) ;
#384 = ADVANCED_FACE ( 'NONE', ( #222 ), #225, .T. ) ;
#385 = ADVANCED_FACE ( 'NONE', ( #232 ), #231, .T. ) ;
#386 = ADVANCED_FACE ( 'NONE', ( #233 ), #131, .T. ) ;
#387 = ADVANCED_FACE ( 'NONE', ( #223, #147 ), #68, .T. ) ;
#388 = CLOSED_SHELL ( 'NONE', ( #379, #385, #235, #386, #238, #237, #382, #236, #384, #380, #387, #234, #381, #383 ) ) ;
#389 = ORIENTED_EDGE ( 'NONE', *, *, #371, .F. ) ;
#390 = ORIENTED_EDGE ( 'NONE', *, *, #400, .F. ) ;
#391 = ORIENTED_EDGE ( 'NONE', *, *, #402, .T. ) ;
#392 = ORIENTED_EDGE ( 'NONE', *, *, #323, .F. ) ;
#393 = ORIENTED_EDGE ( 'NONE', *, *, #404, .F. ) ;
#394 = ORIENTED_EDGE ( 'NONE', *, *, #363, .T. ) ;
#395 = ORIENTED_EDGE ( 'NONE', *, *, #367, .T. ) ;
#396 = ORIENTED_EDGE ( 'NONE', *, *, #365, .T. ) ;
#397 = TOROIDAL_SURFACE ( 'NONE', #374, 41.40000000000000600, 4.000000000000001800 ) ;
#398 = ORIENTED_EDGE ( 'NONE', *, *, #401, .T. ) ;
#399 = PRODUCT ( '038653_Anschlag-Puffer_Schwingmetall_ContiTech', '038653_Anschlag-Puffer_Schwingmetall_ContiTech', '', ( #78 ) ) ;
#400 = EDGE_CURVE ( 'NONE', #339, #331, #132, .T. ) ;
#401 = EDGE_CURVE ( 'NONE', #361, #330, #127, .T. ) ;
#402 = EDGE_CURVE ( 'NONE', #345, #334, #134, .T. ) ;
#403 = EDGE_CURVE ( 'NONE', #331, #350, #139, .T. ) ;
#404 = EDGE_CURVE ( 'NONE', #339, #361, #136, .T. ) ;
ENDSEC;
END-ISO-10303-21;
