ISO-10303-21;
HEADER;
FILE_DESCRIPTION (( 'STEP AP214' ),
    '1' );
FILE_NAME ('038652_Anschlag-Puffer_Schwingmetall_ContiTech.STEP',
    '2013-11-05T12:08:13',
    ( '' ),
    ( '' ),
    'SwSTEP 2.0',
    'SolidWorks 2012',
    '' );
FILE_SCHEMA (( 'AUTOMOTIVE_DESIGN' ));
ENDSEC;

DATA;
#1 = PRESENTATION_LAYER_ASSIGNMENT (  '', '', ( #336 ) ) ;
#2 = MECHANICAL_DESIGN_GEOMETRIC_PRESENTATION_REPRESENTATION (  '', ( #336 ), #3 ) ;
#3 =( GEOMETRIC_REPRESENTATION_CONTEXT ( 3 ) GLOBAL_UNCERTAINTY_ASSIGNED_CONTEXT ( ( #322 ) ) GLOBAL_UNIT_ASSIGNED_CONTEXT ( ( #9, #23, #208 ) ) REPRESENTATION_CONTEXT ( 'NONE', 'WORKASPACE' ) );
#4 = AXIS2_PLACEMENT_3D ( 'NONE', #129, #16, #27 ) ;
#5 = PRODUCT_DEFINITION ( 'UNKNOWN', '', #6, #404 ) ;
#6 = PRODUCT_DEFINITION_FORMATION_WITH_SPECIFIED_SOURCE ( 'ANY', '', #402, .NOT_KNOWN. ) ;
#7 = PRODUCT_RELATED_PRODUCT_CATEGORY ( 'part', '', ( #402 ) ) ;
#8 = APPLICATION_CONTEXT ( 'automotive_design' ) ;
#9 =( LENGTH_UNIT ( ) NAMED_UNIT ( * ) SI_UNIT ( .MILLI., .METRE. ) );
#10 =( NAMED_UNIT ( * ) SI_UNIT ( $, .STERADIAN. ) SOLID_ANGLE_UNIT ( ) );
#11 =( NAMED_UNIT ( * ) PLANE_ANGLE_UNIT ( ) SI_UNIT ( $, .RADIAN. ) );
#12 = DIRECTION ( 'NONE',  ( 0.0000000000000000000, 0.0000000000000000000, -1.000000000000000000 ) ) ;
#13 = DIRECTION ( 'NONE',  ( 0.0000000000000000000, -0.0000000000000000000, 1.000000000000000000 ) ) ;
#14 = CARTESIAN_POINT ( 'NONE',  ( 0.0000000000000000000, 21.00000000000000400, 0.0000000000000000000 ) ) ;
#15 = APPLICATION_CONTEXT ( 'automotive_design' ) ;
#16 = DIRECTION ( 'NONE',  ( 0.0000000000000000000, 0.0000000000000000000, 1.000000000000000000 ) ) ;
#17 = CARTESIAN_POINT ( 'NONE',  ( 8.989999999999998400, 35.00000000000000000, 0.0000000000000000000 ) ) ;
#18 = CARTESIAN_POINT ( 'NONE',  ( 0.0000000000000000000, 5.000000000000000000, 0.0000000000000000000 ) ) ;
#19 = DIRECTION ( 'NONE',  ( 0.0000000000000000000, 0.0000000000000000000, -1.000000000000000000 ) ) ;
#20 = DIRECTION ( 'NONE',  ( 0.0000000000000000000, 0.0000000000000000000, -1.000000000000000000 ) ) ;
#21 = DIRECTION ( 'NONE',  ( 0.0000000000000000000, 0.0000000000000000000, -1.000000000000000000 ) ) ;
#22 = SURFACE_STYLE_USAGE ( .BOTH. , #51 ) ;
#23 =( NAMED_UNIT ( * ) PLANE_ANGLE_UNIT ( ) SI_UNIT ( $, .RADIAN. ) );
#24 = CARTESIAN_POINT ( 'NONE',  ( 0.0000000000000000000, 0.0000000000000000000, 0.0000000000000000000 ) ) ;
#25 = DIRECTION ( 'NONE',  ( -0.0000000000000000000, -1.000000000000000000, -0.0000000000000000000 ) ) ;
#26 = DIRECTION ( 'NONE',  ( 0.0000000000000000000, 1.000000000000000000, 0.0000000000000000000 ) ) ;
#27 = DIRECTION ( 'NONE',  ( 1.000000000000000000, 0.0000000000000000000, 0.0000000000000000000 ) ) ;
#28 = DIRECTION ( 'NONE',  ( -0.0000000000000000000, -1.000000000000000000, -0.0000000000000000000 ) ) ;
#29 =( LENGTH_UNIT ( ) NAMED_UNIT ( * ) SI_UNIT ( .MILLI., .METRE. ) );
#30 = DIRECTION ( 'NONE',  ( -0.0000000000000000000, -1.000000000000000000, -0.0000000000000000000 ) ) ;
#31 = CARTESIAN_POINT ( 'NONE',  ( 3.184081677783118200E-015, 0.0000000000000000000, 26.00000000000000000 ) ) ;
#32 =( NAMED_UNIT ( * ) PLANE_ANGLE_UNIT ( ) SI_UNIT ( $, .RADIAN. ) );
#33 = DIRECTION ( 'NONE',  ( 0.0000000000000000000, 0.0000000000000000000, -1.000000000000000000 ) ) ;
#34 = CARTESIAN_POINT ( 'NONE',  ( 3.182857030983970600E-015, 8.000000000000000000, 25.98999999999999800 ) ) ;
#35 = DIRECTION ( 'NONE',  ( -0.0000000000000000000, -1.000000000000000000, -0.0000000000000000000 ) ) ;
#36 = DIRECTION ( 'NONE',  ( -0.0000000000000000000, -1.000000000000000000, -0.0000000000000000000 ) ) ;
#37 = CARTESIAN_POINT ( 'NONE',  ( 0.0000000000000000000, 0.0000000000000000000, 0.0000000000000000000 ) ) ;
#38 = CARTESIAN_POINT ( 'NONE',  ( 1.100957472433470500E-015, 21.00000000000000400, 8.990000000000000200 ) ) ;
#39 = CARTESIAN_POINT ( 'NONE',  ( 0.0000000000000000000, 0.0000000000000000000, 0.0000000000000000000 ) ) ;
#40 = CARTESIAN_POINT ( 'NONE',  ( 0.0000000000000000000, 0.0000000000000000000, 0.0000000000000000000 ) ) ;
#41 = FILL_AREA_STYLE ('',( #57 ) ) ;
#42 = CARTESIAN_POINT ( 'NONE',  ( 4.000000000000000000, 0.0000000000000000000, 0.0000000000000000000 ) ) ;
#43 = CARTESIAN_POINT ( 'NONE',  ( 0.0000000000000000000, 8.000000000000000000, 0.0000000000000000000 ) ) ;
#44 = APPLICATION_PROTOCOL_DEFINITION ( 'draft international standard', 'automotive_design', 1998, #8 ) ;
#45 = CARTESIAN_POINT ( 'NONE',  ( 0.0000000000000000000, 21.00000000000000400, 0.0000000000000000000 ) ) ;
#46 = DIRECTION ( 'NONE',  ( -1.000000000000000000, 0.0000000000000000000, 0.0000000000000000000 ) ) ;
#47 = SURFACE_STYLE_USAGE ( .BOTH. , #198 ) ;
#48 = DIRECTION ( 'NONE',  ( -0.0000000000000000000, -1.000000000000000000, -0.0000000000000000000 ) ) ;
#49 = DIRECTION ( 'NONE',  ( 0.0000000000000000000, 0.0000000000000000000, -1.000000000000000000 ) ) ;
#50 = DIRECTION ( 'NONE',  ( 0.0000000000000000000, 0.0000000000000000000, 1.000000000000000000 ) ) ;
#51 = SURFACE_SIDE_STYLE ('',( #398 ) ) ;
#52 = CARTESIAN_POINT ( 'NONE',  ( 0.0000000000000000000, 35.00000000000000000, 0.0000000000000000000 ) ) ;
#53 = DIRECTION ( 'NONE',  ( -0.0000000000000000000, -1.000000000000000000, -0.0000000000000000000 ) ) ;
#54 = DIRECTION ( 'NONE',  ( -0.0000000000000000000, -1.000000000000000000, -0.0000000000000000000 ) ) ;
#55 = DIRECTION ( 'NONE',  ( 0.0000000000000000000, 0.0000000000000000000, -1.000000000000000000 ) ) ;
#56 = DIRECTION ( 'NONE',  ( -0.0000000000000000000, -1.000000000000000000, -0.0000000000000000000 ) ) ;
#57 = FILL_AREA_STYLE_COLOUR ( '', #397 ) ;
#58 = DIRECTION ( 'NONE',  ( -1.224646799147353700E-016, 0.0000000000000000000, -1.000000000000000000 ) ) ;
#59 = DIRECTION ( 'NONE',  ( 0.0000000000000000000, 0.0000000000000000000, -1.000000000000000000 ) ) ;
#60 = DIRECTION ( 'NONE',  ( 0.0000000000000000000, 0.0000000000000000000, -1.000000000000000000 ) ) ;
#61 = DIRECTION ( 'NONE',  ( -0.0000000000000000000, -1.000000000000000000, -0.0000000000000000000 ) ) ;
#62 = CARTESIAN_POINT ( 'NONE',  ( 0.0000000000000000000, 0.0000000000000000000, 0.0000000000000000000 ) ) ;
#63 = CARTESIAN_POINT ( 'NONE',  ( 0.0000000000000000000, 0.0000000000000000000, 0.0000000000000000000 ) ) ;
#64 = CARTESIAN_POINT ( 'NONE',  ( 0.0000000000000000000, 0.0000000000000000000, -26.00000000000000000 ) ) ;
#65 = DIRECTION ( 'NONE',  ( -0.0000000000000000000, -1.000000000000000000, -0.0000000000000000000 ) ) ;
#66 = CARTESIAN_POINT ( 'NONE',  ( 0.0000000000000000000, 8.000000000000000000, -25.98999999999999800 ) ) ;
#67 = AXIS2_PLACEMENT_3D ( 'NONE', #24, #197, #127 ) ;
#68 = CARTESIAN_POINT ( 'NONE',  ( 0.0000000000000000000, 8.800000000000000700, 0.0000000000000000000 ) ) ;
#69 = AXIS2_PLACEMENT_3D ( 'NONE', #40, #116, #21 ) ;
#70 = AXIS2_PLACEMENT_3D ( 'NONE', #135, #150, #19 ) ;
#71 = AXIS2_PLACEMENT_3D ( 'NONE', #45, #195, #108 ) ;
#72 = DIRECTION ( 'NONE',  ( -0.0000000000000000000, -1.000000000000000000, -0.0000000000000000000 ) ) ;
#73 = AXIS2_PLACEMENT_3D ( 'NONE', #101, #26, #13 ) ;
#74 = AXIS2_PLACEMENT_3D ( 'NONE', #152, #65, #133 ) ;
#75 = AXIS2_PLACEMENT_3D ( 'NONE', #185, #184, #140 ) ;
#76 = AXIS2_PLACEMENT_3D ( 'NONE', #63, #190, #125 ) ;
#77 = AXIS2_PLACEMENT_3D ( 'NONE', #17, #139, #216 ) ;
#78 = AXIS2_PLACEMENT_3D ( 'NONE', #112, #117, #59 ) ;
#79 = AXIS2_PLACEMENT_3D ( 'NONE', #42, #209, #110 ) ;
#80 =( NAMED_UNIT ( * ) SI_UNIT ( $, .STERADIAN. ) SOLID_ANGLE_UNIT ( ) );
#81 = AXIS2_PLACEMENT_3D ( 'NONE', #210, #206, #50 ) ;
#82 = AXIS2_PLACEMENT_3D ( 'NONE', #183, #36, #102 ) ;
#83 = AXIS2_PLACEMENT_3D ( 'NONE', #105, #115, #187 ) ;
#84 = AXIS2_PLACEMENT_3D ( 'NONE', #146, #141, #106 ) ;
#85 = STYLED_ITEM ( 'NONE', ( #234 ), #319 ) ;
#86 = PRESENTATION_LAYER_ASSIGNMENT (  '', '', ( #85 ) ) ;
#87 = MECHANICAL_DESIGN_GEOMETRIC_PRESENTATION_REPRESENTATION (  '', ( #85 ), #89 ) ;
#88 = CARTESIAN_POINT ( 'NONE',  ( 4.898587196589412800E-016, 0.0000000000000000000, 4.000000000000000000 ) ) ;
#89 =( GEOMETRIC_REPRESENTATION_CONTEXT ( 3 ) GLOBAL_UNCERTAINTY_ASSIGNED_CONTEXT ( ( #318 ) ) GLOBAL_UNIT_ASSIGNED_CONTEXT ( ( #29, #11, #10 ) ) REPRESENTATION_CONTEXT ( 'NONE', 'WORKASPACE' ) );
#90 = AXIS2_PLACEMENT_3D ( 'NONE', #34, #201, #58 ) ;
#91 = DIRECTION ( 'NONE',  ( -1.224646799147353200E-016, 0.0000000000000000000, -1.000000000000000000 ) ) ;
#92 = AXIS2_PLACEMENT_3D ( 'NONE', #66, #46, #212 ) ;
#93 = AXIS2_PLACEMENT_3D ( 'NONE', #204, #200, #214 ) ;
#94 = CARTESIAN_POINT ( 'NONE',  ( 0.0000000000000000000, 5.000000000000001800, -25.98999999999999800 ) ) ;
#95 = AXIS2_PLACEMENT_3D ( 'NONE', #62, #61, #33 ) ;
#96 = AXIS2_PLACEMENT_3D ( 'NONE', #14, #48, #60 ) ;
#97 = AXIS2_PLACEMENT_3D ( 'NONE', #43, #28, #12 ) ;
#98 = DIRECTION ( 'NONE',  ( -0.0000000000000000000, -1.000000000000000000, -0.0000000000000000000 ) ) ;
#99 =( GEOMETRIC_REPRESENTATION_CONTEXT ( 3 ) GLOBAL_UNCERTAINTY_ASSIGNED_CONTEXT ( ( #320 ) ) GLOBAL_UNIT_ASSIGNED_CONTEXT ( ( #137, #32, #80 ) ) REPRESENTATION_CONTEXT ( 'NONE', 'WORKASPACE' ) );
#100 = CARTESIAN_POINT ( 'NONE',  ( 3.184081677783118200E-015, 5.000000000000000000, 26.00000000000000000 ) ) ;
#101 = CARTESIAN_POINT ( 'NONE',  ( 26.00000000000000000, 5.000000000000000900, 0.0000000000000000000 ) ) ;
#102 = DIRECTION ( 'NONE',  ( 0.0000000000000000000, 0.0000000000000000000, -1.000000000000000000 ) ) ;
#103 = DIRECTION ( 'NONE',  ( -0.0000000000000000000, -1.000000000000000000, -0.0000000000000000000 ) ) ;
#104 = DIRECTION ( 'NONE',  ( -0.0000000000000000000, -1.000000000000000000, -0.0000000000000000000 ) ) ;
#105 = CARTESIAN_POINT ( 'NONE',  ( 0.0000000000000000000, 8.000000000000000000, 0.0000000000000000000 ) ) ;
#106 = DIRECTION ( 'NONE',  ( 0.0000000000000000000, 0.0000000000000000000, -1.000000000000000000 ) ) ;
#107 = CARTESIAN_POINT ( 'NONE',  ( 0.0000000000000000000, 8.800000000000000700, -4.000000000000000000 ) ) ;
#108 = DIRECTION ( 'NONE',  ( 0.0000000000000000000, 0.0000000000000000000, -1.000000000000000000 ) ) ;
#109 = CARTESIAN_POINT ( 'NONE',  ( 2.815462991239765600E-015, 8.000000000000000000, 22.99000000000000200 ) ) ;
#110 = DIRECTION ( 'NONE',  ( 0.0000000000000000000, 0.0000000000000000000, -1.000000000000000000 ) ) ;
#111 = DIRECTION ( 'NONE',  ( 0.0000000000000000000, 0.0000000000000000000, -1.000000000000000000 ) ) ;
#112 = CARTESIAN_POINT ( 'NONE',  ( 0.0000000000000000000, 8.000000000000000000, 0.0000000000000000000 ) ) ;
#113 = DIRECTION ( 'NONE',  ( 0.0000000000000000000, 0.0000000000000000000, -1.000000000000000000 ) ) ;
#114 = CARTESIAN_POINT ( 'NONE',  ( 0.0000000000000000000, 0.0000000000000000000, -26.00000000000000000 ) ) ;
#115 = DIRECTION ( 'NONE',  ( -0.0000000000000000000, -1.000000000000000000, -0.0000000000000000000 ) ) ;
#116 = DIRECTION ( 'NONE',  ( -0.0000000000000000000, -1.000000000000000000, -0.0000000000000000000 ) ) ;
#117 = DIRECTION ( 'NONE',  ( -0.0000000000000000000, -1.000000000000000000, -0.0000000000000000000 ) ) ;
#118 = DIRECTION ( 'NONE',  ( -0.0000000000000000000, -1.000000000000000000, -0.0000000000000000000 ) ) ;
#119 = FILL_AREA_STYLE ('',( #211 ) ) ;
#120 = CARTESIAN_POINT ( 'NONE',  ( 0.0000000000000000000, 8.000000000000000000, -22.99000000000000200 ) ) ;
#121 = CARTESIAN_POINT ( 'NONE',  ( 4.898587196589412800E-016, 8.800000000000000700, 4.000000000000000000 ) ) ;
#122 = DIRECTION ( 'NONE',  ( -0.0000000000000000000, -1.000000000000000000, -0.0000000000000000000 ) ) ;
#123 = CARTESIAN_POINT ( 'NONE',  ( 1.958210231836617600E-015, 35.00000000000000000, 8.990000000000000200 ) ) ;
#124 = CARTESIAN_POINT ( 'NONE',  ( 2.815462991239764800E-015, 0.0000000000000000000, 22.98999999999999800 ) ) ;
#125 = DIRECTION ( 'NONE',  ( 0.0000000000000000000, 0.0000000000000000000, -1.000000000000000000 ) ) ;
#126 = DIRECTION ( 'NONE',  ( 0.0000000000000000000, 0.0000000000000000000, -1.000000000000000000 ) ) ;
#127 = DIRECTION ( 'NONE',  ( 0.0000000000000000000, 0.0000000000000000000, -1.000000000000000000 ) ) ;
#128 = PLANE ( 'NONE',  #79 ) ;
#129 = CARTESIAN_POINT ( 'NONE',  ( 0.0000000000000000000, 0.0000000000000000000, 0.0000000000000000000 ) ) ;
#130 = DIRECTION ( 'NONE',  ( 0.0000000000000000000, 0.0000000000000000000, -1.000000000000000000 ) ) ;
#131 = DIRECTION ( 'NONE',  ( 1.000000000000000000, 0.0000000000000000000, -1.224646799147353200E-016 ) ) ;
#132 = DIRECTION ( 'NONE',  ( -0.0000000000000000000, -1.000000000000000000, -0.0000000000000000000 ) ) ;
#133 = DIRECTION ( 'NONE',  ( 0.0000000000000000000, 0.0000000000000000000, -1.000000000000000000 ) ) ;
#134 = CARTESIAN_POINT ( 'NONE',  ( 3.182857030983970600E-015, 5.000000000000001800, 25.98999999999999800 ) ) ;
#135 = CARTESIAN_POINT ( 'NONE',  ( 4.000000000000000000, 8.800000000000000700, 0.0000000000000000000 ) ) ;
#136 = CARTESIAN_POINT ( 'NONE',  ( 0.0000000000000000000, 0.0000000000000000000, -22.98999999999999800 ) ) ;
#137 =( LENGTH_UNIT ( ) NAMED_UNIT ( * ) SI_UNIT ( .MILLI., .METRE. ) );
#138 = DIRECTION ( 'NONE',  ( 0.0000000000000000000, 0.0000000000000000000, -1.000000000000000000 ) ) ;
#139 = DIRECTION ( 'NONE',  ( 0.0000000000000000000, 1.000000000000000000, 0.0000000000000000000 ) ) ;
#140 = DIRECTION ( 'NONE',  ( 0.0000000000000000000, 0.0000000000000000000, -1.000000000000000000 ) ) ;
#141 = DIRECTION ( 'NONE',  ( -0.0000000000000000000, -1.000000000000000000, -0.0000000000000000000 ) ) ;
#142 = PLANE ( 'NONE',  #70 ) ;
#143 = ORIENTED_EDGE ( 'NONE', *, *, #390, .T. ) ;
#144 = CARTESIAN_POINT ( 'NONE',  ( 0.0000000000000000000, 0.0000000000000000000, -4.000000000000000000 ) ) ;
#145 = ORIENTED_EDGE ( 'NONE', *, *, #223, .T. ) ;
#146 = CARTESIAN_POINT ( 'NONE',  ( 0.0000000000000000000, 0.0000000000000000000, 0.0000000000000000000 ) ) ;
#147 = CIRCLE ( 'NONE', #325, 8.990000000000000200 ) ;
#148 = CARTESIAN_POINT ( 'NONE',  ( 0.0000000000000000000, 0.0000000000000000000, 0.0000000000000000000 ) ) ;
#149 = CIRCLE ( 'NONE', #324, 26.00000000000000000 ) ;
#150 = DIRECTION ( 'NONE',  ( 0.0000000000000000000, -1.000000000000000000, -0.0000000000000000000 ) ) ;
#151 = ORIENTED_EDGE ( 'NONE', *, *, #223, .F. ) ;
#152 = CARTESIAN_POINT ( 'NONE',  ( 0.0000000000000000000, 8.000000000000000000, 0.0000000000000000000 ) ) ;
#153 = ORIENTED_EDGE ( 'NONE', *, *, #388, .F. ) ;
#154 = APPLICATION_PROTOCOL_DEFINITION ( 'draft international standard', 'automotive_design', 1998, #15 ) ;
#155 = VERTEX_POINT ( 'NONE', #109 ) ;
#156 = CARTESIAN_POINT ( 'NONE',  ( 0.0000000000000000000, 5.000000000000000000, 0.0000000000000000000 ) ) ;
#157 = ORIENTED_EDGE ( 'NONE', *, *, #225, .F. ) ;
#158 = CARTESIAN_POINT ( 'NONE',  ( 0.0000000000000000000, 0.0000000000000000000, -4.000000000000000000 ) ) ;
#159 = ORIENTED_EDGE ( 'NONE', *, *, #222, .T. ) ;
#160 = VERTEX_POINT ( 'NONE', #213 ) ;
#161 = ORIENTED_EDGE ( 'NONE', *, *, #224, .T. ) ;
#162 = DIRECTION ( 'NONE',  ( 0.0000000000000000000, 0.0000000000000000000, -1.000000000000000000 ) ) ;
#163 = ORIENTED_EDGE ( 'NONE', *, *, #386, .T. ) ;
#164 = DIRECTION ( 'NONE',  ( 0.0000000000000000000, 0.0000000000000000000, -1.000000000000000000 ) ) ;
#165 = CIRCLE ( 'NONE', #327, 22.98999999999999500 ) ;
#166 = DIRECTION ( 'NONE',  ( 0.0000000000000000000, 0.0000000000000000000, -1.000000000000000000 ) ) ;
#167 = ORIENTED_EDGE ( 'NONE', *, *, #228, .F. ) ;
#169 = VERTEX_POINT ( 'NONE', #123 ) ;
#168 = PLANE ( 'NONE',  #73 ) ;
#170 = CARTESIAN_POINT ( 'NONE',  ( 0.0000000000000000000, 5.000000000000000900, 0.0000000000000000000 ) ) ;
#171 = ORIENTED_EDGE ( 'NONE', *, *, #392, .T. ) ;
#172 = CIRCLE ( 'NONE', #326, 13.99999999999999800 ) ;
#173 = VERTEX_POINT ( 'NONE', #181 ) ;
#174 = VERTEX_POINT ( 'NONE', #120 ) ;
#175 = ORIENTED_EDGE ( 'NONE', *, *, #227, .T. ) ;
#176 = CARTESIAN_POINT ( 'NONE',  ( 0.0000000000000000000, 21.00000000000000400, 0.0000000000000000000 ) ) ;
#177 = ORIENTED_EDGE ( 'NONE', *, *, #387, .T. ) ;
#178 = ORIENTED_EDGE ( 'NONE', *, *, #224, .F. ) ;
#179 = ORIENTED_EDGE ( 'NONE', *, *, #391, .T. ) ;
#180 = ORIENTED_EDGE ( 'NONE', *, *, #226, .F. ) ;
#181 = CARTESIAN_POINT ( 'NONE',  ( 2.815462991239764800E-015, 21.00000000000000400, 22.98999999999999500 ) ) ;
#182 = DIRECTION ( 'NONE',  ( -0.0000000000000000000, -1.000000000000000000, -0.0000000000000000000 ) ) ;
#183 = CARTESIAN_POINT ( 'NONE',  ( 0.0000000000000000000, 0.0000000000000000000, 0.0000000000000000000 ) ) ;
#184 = DIRECTION ( 'NONE',  ( -0.0000000000000000000, -1.000000000000000000, -0.0000000000000000000 ) ) ;
#185 = CARTESIAN_POINT ( 'NONE',  ( 0.0000000000000000000, 0.0000000000000000000, 0.0000000000000000000 ) ) ;
#186 = PLANE ( 'NONE',  #77 ) ;
#187 = DIRECTION ( 'NONE',  ( 0.0000000000000000000, 0.0000000000000000000, -1.000000000000000000 ) ) ;
#188 = CARTESIAN_POINT ( 'NONE',  ( 0.0000000000000000000, 5.000000000000000000, -26.00000000000000000 ) ) ;
#189 = CARTESIAN_POINT ( 'NONE',  ( 0.0000000000000000000, 21.00000000000000400, -22.98999999999999500 ) ) ;
#190 = DIRECTION ( 'NONE',  ( -0.0000000000000000000, -1.000000000000000000, -0.0000000000000000000 ) ) ;
#191 = CARTESIAN_POINT ( 'NONE',  ( 0.0000000000000000000, 21.00000000000000400, 0.0000000000000000000 ) ) ;
#192 = CARTESIAN_POINT ( 'NONE',  ( 0.0000000000000000000, 8.800000000000000700, 0.0000000000000000000 ) ) ;
#193 = DIRECTION ( 'NONE',  ( -0.0000000000000000000, -1.000000000000000000, -0.0000000000000000000 ) ) ;
#194 = CARTESIAN_POINT ( 'NONE',  ( 3.184081677783118200E-015, 0.0000000000000000000, 26.00000000000000000 ) ) ;
#195 = DIRECTION ( 'NONE',  ( -0.0000000000000000000, -1.000000000000000000, -0.0000000000000000000 ) ) ;
#196 = DIRECTION ( 'NONE',  ( -0.0000000000000000000, -1.000000000000000000, -0.0000000000000000000 ) ) ;
#197 = DIRECTION ( 'NONE',  ( -0.0000000000000000000, -1.000000000000000000, -0.0000000000000000000 ) ) ;
#198 = SURFACE_SIDE_STYLE ('',( #237 ) ) ;
#199 = CARTESIAN_POINT ( 'NONE',  ( 4.898587196589412800E-016, 0.0000000000000000000, 4.000000000000000000 ) ) ;
#200 = DIRECTION ( 'NONE',  ( -0.0000000000000000000, -1.000000000000000000, -0.0000000000000000000 ) ) ;
#201 = DIRECTION ( 'NONE',  ( 1.000000000000000000, 0.0000000000000000000, -1.224646799147353200E-016 ) ) ;
#202 = DIRECTION ( 'NONE',  ( -0.0000000000000000000, -1.000000000000000000, -0.0000000000000000000 ) ) ;
#203 = CARTESIAN_POINT ( 'NONE',  ( 0.0000000000000000000, 35.00000000000000000, 0.0000000000000000000 ) ) ;
#204 = CARTESIAN_POINT ( 'NONE',  ( 0.0000000000000000000, 5.000000000000000900, 0.0000000000000000000 ) ) ;
#205 = PRODUCT_CONTEXT ( 'NONE', #15, 'mechanical' ) ;
#206 = DIRECTION ( 'NONE',  ( -1.000000000000000000, 0.0000000000000000000, 0.0000000000000000000 ) ) ;
#207 = DIRECTION ( 'NONE',  ( -0.0000000000000000000, -1.000000000000000000, -0.0000000000000000000 ) ) ;
#208 =( NAMED_UNIT ( * ) SI_UNIT ( $, .STERADIAN. ) SOLID_ANGLE_UNIT ( ) );
#209 = DIRECTION ( 'NONE',  ( 0.0000000000000000000, -1.000000000000000000, -0.0000000000000000000 ) ) ;
#210 = CARTESIAN_POINT ( 'NONE',  ( 0.0000000000000000000, 21.00000000000000400, -8.990000000000000200 ) ) ;
#211 = FILL_AREA_STYLE_COLOUR ( '', #238 ) ;
#212 = DIRECTION ( 'NONE',  ( 0.0000000000000000000, 0.0000000000000000000, 1.000000000000000000 ) ) ;
#213 = CARTESIAN_POINT ( 'NONE',  ( 0.0000000000000000000, 35.00000000000000000, -8.990000000000000200 ) ) ;
#214 = DIRECTION ( 'NONE',  ( 0.0000000000000000000, 0.0000000000000000000, -1.000000000000000000 ) ) ;
#215 = DIRECTION ( 'NONE',  ( 0.0000000000000000000, 0.0000000000000000000, -1.000000000000000000 ) ) ;
#216 = DIRECTION ( 'NONE',  ( 0.0000000000000000000, -0.0000000000000000000, 1.000000000000000000 ) ) ;
#217 = EDGE_CURVE ( 'NONE', #288, #289, #149, .T. ) ;
#218 = EDGE_CURVE ( 'NONE', #160, #169, #147, .T. ) ;
#219 = EDGE_CURVE ( 'NONE', #169, #173, #172, .T. ) ;
#220 = EDGE_CURVE ( 'NONE', #173, #242, #165, .T. ) ;
#221 = EDGE_CURVE ( 'NONE', #279, #287, #346, .T. ) ;
#222 = EDGE_CURVE ( 'NONE', #289, #288, #351, .T. ) ;
#223 = EDGE_CURVE ( 'NONE', #301, #269, #338, .T. ) ;
#224 = EDGE_CURVE ( 'NONE', #273, #271, #344, .T. ) ;
#225 = EDGE_CURVE ( 'NONE', #292, #275, #352, .T. ) ;
#226 = EDGE_CURVE ( 'NONE', #271, #273, #347, .T. ) ;
#227 = EDGE_CURVE ( 'NONE', #292, #273, #341, .T. ) ;
#228 = EDGE_CURVE ( 'NONE', #275, #271, #340, .T. ) ;
#229 = EDGE_CURVE ( 'NONE', #275, #292, #349, .T. ) ;
#230 = EDGE_CURVE ( 'NONE', #169, #160, #345, .T. ) ;
#231 = EDGE_CURVE ( 'NONE', #242, #174, #348, .T. ) ;
#232 = CIRCLE ( 'NONE', #83, 22.99000000000000200 ) ;
#233 = CYLINDRICAL_SURFACE ( 'NONE', #84, 22.98999999999999800 ) ;
#234 = PRESENTATION_STYLE_ASSIGNMENT (( #47 ) ) ;
#235 = CYLINDRICAL_SURFACE ( 'NONE', #82, 4.000000000000000000 ) ;
#236 = FACE_OUTER_BOUND ( 'NONE', #239, .T. ) ;
#237 = SURFACE_STYLE_FILL_AREA ( #119 ) ;
#238 = COLOUR_RGB ( '',0.7529411764705882200, 0.7529411764705882200, 0.7529411764705882200 ) ;
#239 = EDGE_LOOP ( 'NONE', ( #298, #299, #284, #270 ) ) ;
#240 = ORIENTED_EDGE ( 'NONE', *, *, #226, .T. ) ;
#241 = ORIENTED_EDGE ( 'NONE', *, *, #390, .F. ) ;
#242 = VERTEX_POINT ( 'NONE', #189 ) ;
#243 = EDGE_LOOP ( 'NONE', ( #285, #277, #295, #274 ) ) ;
#244 = EDGE_LOOP ( 'NONE', ( #179, #257, #302, #262 ) ) ;
#245 = EDGE_LOOP ( 'NONE', ( #272, #290 ) ) ;
#246 = ORIENTED_EDGE ( 'NONE', *, *, #229, .F. ) ;
#247 = ORIENTED_EDGE ( 'NONE', *, *, #387, .F. ) ;
#248 = EDGE_LOOP ( 'NONE', ( #294, #159, #177, #151 ) ) ;
#249 = ORIENTED_EDGE ( 'NONE', *, *, #389, .F. ) ;
#250 = EDGE_LOOP ( 'NONE', ( #178, #180 ) ) ;
#251 = EDGE_LOOP ( 'NONE', ( #143, #145 ) ) ;
#252 = EDGE_LOOP ( 'NONE', ( #296, #303 ) ) ;
#253 = EDGE_LOOP ( 'NONE', ( #254, #260, #241, #247 ) ) ;
#254 = ORIENTED_EDGE ( 'NONE', *, *, #217, .T. ) ;
#255 = EDGE_LOOP ( 'NONE', ( #280, #281 ) ) ;
#256 = EDGE_LOOP ( 'NONE', ( #286, #268, #297, #291 ) ) ;
#257 = ORIENTED_EDGE ( 'NONE', *, *, #394, .T. ) ;
#258 = EDGE_LOOP ( 'NONE', ( #167, #157, #175, #161 ) ) ;
#259 = EDGE_LOOP ( 'NONE', ( #278, #293 ) ) ;
#260 = ORIENTED_EDGE ( 'NONE', *, *, #393, .T. ) ;
#261 = EDGE_LOOP ( 'NONE', ( #246, #267, #240, #266 ) ) ;
#262 = ORIENTED_EDGE ( 'NONE', *, *, #231, .F. ) ;
#263 = EDGE_LOOP ( 'NONE', ( #249, #163, #171, #153 ) ) ;
#264 = EDGE_LOOP ( 'NONE', ( #300, #276, #282, #283 ) ) ;
#265 = CLOSED_SHELL ( 'NONE', ( #306, #311, #312, #309, #310, #307, #313, #304, #317, #316, #308, #305, #314, #315 ) ) ;
#266 = ORIENTED_EDGE ( 'NONE', *, *, #227, .F. ) ;
#267 = ORIENTED_EDGE ( 'NONE', *, *, #228, .T. ) ;
#268 = ORIENTED_EDGE ( 'NONE', *, *, #230, .T. ) ;
#269 = VERTEX_POINT ( 'NONE', #114 ) ;
#270 = ORIENTED_EDGE ( 'NONE', *, *, #392, .F. ) ;
#271 = VERTEX_POINT ( 'NONE', #199 ) ;
#272 = ORIENTED_EDGE ( 'NONE', *, *, #218, .F. ) ;
#273 = VERTEX_POINT ( 'NONE', #158 ) ;
#274 = ORIENTED_EDGE ( 'NONE', *, *, #385, .F. ) ;
#275 = VERTEX_POINT ( 'NONE', #121 ) ;
#276 = ORIENTED_EDGE ( 'NONE', *, *, #221, .F. ) ;
#277 = ORIENTED_EDGE ( 'NONE', *, *, #219, .T. ) ;
#278 = ORIENTED_EDGE ( 'NONE', *, *, #221, .T. ) ;
#279 = VERTEX_POINT ( 'NONE', #94 ) ;
#280 = ORIENTED_EDGE ( 'NONE', *, *, #217, .F. ) ;
#281 = ORIENTED_EDGE ( 'NONE', *, *, #222, .F. ) ;
#282 = ORIENTED_EDGE ( 'NONE', *, *, #388, .T. ) ;
#283 = ORIENTED_EDGE ( 'NONE', *, *, #323, .T. ) ;
#284 = ORIENTED_EDGE ( 'NONE', *, *, #231, .T. ) ;
#285 = ORIENTED_EDGE ( 'NONE', *, *, #218, .T. ) ;
#286 = ORIENTED_EDGE ( 'NONE', *, *, #219, .F. ) ;
#287 = VERTEX_POINT ( 'NONE', #134 ) ;
#288 = VERTEX_POINT ( 'NONE', #188 ) ;
#289 = VERTEX_POINT ( 'NONE', #100 ) ;
#290 = ORIENTED_EDGE ( 'NONE', *, *, #230, .F. ) ;
#291 = ORIENTED_EDGE ( 'NONE', *, *, #220, .F. ) ;
#292 = VERTEX_POINT ( 'NONE', #107 ) ;
#293 = ORIENTED_EDGE ( 'NONE', *, *, #389, .T. ) ;
#294 = ORIENTED_EDGE ( 'NONE', *, *, #393, .F. ) ;
#295 = ORIENTED_EDGE ( 'NONE', *, *, #391, .F. ) ;
#296 = ORIENTED_EDGE ( 'NONE', *, *, #225, .T. ) ;
#297 = ORIENTED_EDGE ( 'NONE', *, *, #385, .T. ) ;
#298 = ORIENTED_EDGE ( 'NONE', *, *, #394, .F. ) ;
#299 = ORIENTED_EDGE ( 'NONE', *, *, #220, .T. ) ;
#300 = ORIENTED_EDGE ( 'NONE', *, *, #386, .F. ) ;
#301 = VERTEX_POINT ( 'NONE', #194 ) ;
#302 = ORIENTED_EDGE ( 'NONE', *, *, #323, .F. ) ;
#303 = ORIENTED_EDGE ( 'NONE', *, *, #229, .T. ) ;
#304 = ADVANCED_FACE ( 'NONE', ( #342 ), #354, .T. ) ;
#305 = ADVANCED_FACE ( 'NONE', ( #350 ), #368, .T. ) ;
#306 = ADVANCED_FACE ( 'NONE', ( #353 ), #363, .F. ) ;
#307 = ADVANCED_FACE ( 'NONE', ( #355 ), #142, .T. ) ;
#308 = ADVANCED_FACE ( 'NONE', ( #357, #365 ), #168, .T. ) ;
#309 = ADVANCED_FACE ( 'NONE', ( #359 ), #370, .T. ) ;
#310 = ADVANCED_FACE ( 'NONE', ( #358 ), #366, .T. ) ;
#311 = ADVANCED_FACE ( 'NONE', ( #369 ), #371, .T. ) ;
#312 = ADVANCED_FACE ( 'NONE', ( #364 ), #360, .F. ) ;
#313 = ADVANCED_FACE ( 'NONE', ( #373 ), #186, .T. ) ;
#314 = ADVANCED_FACE ( 'NONE', ( #372, #361 ), #128, .T. ) ;
#315 = ADVANCED_FACE ( 'NONE', ( #374 ), #235, .F. ) ;
#316 = ADVANCED_FACE ( 'NONE', ( #367 ), #362, .F. ) ;
#317 = ADVANCED_FACE ( 'NONE', ( #236 ), #233, .T. ) ;
#318 = UNCERTAINTY_MEASURE_WITH_UNIT (LENGTH_MEASURE( 1.000000000000000100E-005 ), #29, 'distance_accuracy_value', 'NONE');
#319 = MANIFOLD_SOLID_BREP ( 'Rotation1', #265 ) ;
#320 = UNCERTAINTY_MEASURE_WITH_UNIT (LENGTH_MEASURE( 1.000000000000000100E-005 ), #137, 'distance_accuracy_value', 'NONE');
#321 = ADVANCED_BREP_SHAPE_REPRESENTATION ( '038652_Anschlag-Puffer_Schwingmetall_ContiTech', ( #319, #4 ), #99 ) ;
#322 = UNCERTAINTY_MEASURE_WITH_UNIT (LENGTH_MEASURE( 1.000000000000000100E-005 ), #9, 'distance_accuracy_value', 'NONE');
#323 = EDGE_CURVE ( 'NONE', #174, #155, #232, .T. ) ;
#324 = AXIS2_PLACEMENT_3D ( 'NONE', #18, #56, #111 ) ;
#325 = AXIS2_PLACEMENT_3D ( 'NONE', #203, #193, #126 ) ;
#326 = AXIS2_PLACEMENT_3D ( 'NONE', #38, #131, #91 ) ;
#327 = AXIS2_PLACEMENT_3D ( 'NONE', #176, #118, #138 ) ;
#328 = AXIS2_PLACEMENT_3D ( 'NONE', #170, #30, #215 ) ;
#329 = AXIS2_PLACEMENT_3D ( 'NONE', #156, #98, #162 ) ;
#330 = AXIS2_PLACEMENT_3D ( 'NONE', #39, #72, #166 ) ;
#331 = AXIS2_PLACEMENT_3D ( 'NONE', #37, #122, #49 ) ;
#332 = AXIS2_PLACEMENT_3D ( 'NONE', #192, #103, #55 ) ;
#333 = AXIS2_PLACEMENT_3D ( 'NONE', #148, #25, #20 ) ;
#334 = AXIS2_PLACEMENT_3D ( 'NONE', #68, #35, #113 ) ;
#335 = AXIS2_PLACEMENT_3D ( 'NONE', #52, #54, #164 ) ;
#336 = STYLED_ITEM ( 'NONE', ( #401 ), #321 ) ;
#337 = AXIS2_PLACEMENT_3D ( 'NONE', #191, #182, #130 ) ;
#338 = CIRCLE ( 'NONE', #330, 26.00000000000000000 ) ;
#339 = VECTOR ( 'NONE', #196, 1000.000000000000000 ) ;
#340 = LINE ( 'NONE', #88, #343 ) ;
#341 = LINE ( 'NONE', #144, #356 ) ;
#342 = FACE_OUTER_BOUND ( 'NONE', #256, .T. ) ;
#343 = VECTOR ( 'NONE', #132, 1000.000000000000000 ) ;
#344 = CIRCLE ( 'NONE', #331, 4.000000000000000000 ) ;
#345 = CIRCLE ( 'NONE', #335, 8.990000000000000200 ) ;
#346 = CIRCLE ( 'NONE', #328, 25.98999999999999800 ) ;
#347 = CIRCLE ( 'NONE', #333, 4.000000000000000000 ) ;
#348 = LINE ( 'NONE', #136, #339 ) ;
#349 = CIRCLE ( 'NONE', #334, 4.000000000000000000 ) ;
#350 = FACE_OUTER_BOUND ( 'NONE', #248, .T. ) ;
#351 = CIRCLE ( 'NONE', #329, 26.00000000000000000 ) ;
#352 = CIRCLE ( 'NONE', #332, 4.000000000000000000 ) ;
#353 = FACE_OUTER_BOUND ( 'NONE', #261, .T. ) ;
#354 = TOROIDAL_SURFACE ( 'NONE', #337, 8.990000000000000200, 13.99999999999999800 ) ;
#355 = FACE_OUTER_BOUND ( 'NONE', #252, .T. ) ;
#356 = VECTOR ( 'NONE', #53, 1000.000000000000000 ) ;
#357 = FACE_BOUND ( 'NONE', #259, .T. ) ;
#358 = FACE_OUTER_BOUND ( 'NONE', #243, .T. ) ;
#359 = FACE_OUTER_BOUND ( 'NONE', #244, .T. ) ;
#360 = TOROIDAL_SURFACE ( 'NONE', #74, 25.98999999999999800, 2.999999999999997300 ) ;
#361 = FACE_BOUND ( 'NONE', #250, .T. ) ;
#362 = TOROIDAL_SURFACE ( 'NONE', #78, 25.98999999999999800, 2.999999999999997300 ) ;
#363 = CYLINDRICAL_SURFACE ( 'NONE', #69, 4.000000000000000000 ) ;
#364 = FACE_OUTER_BOUND ( 'NONE', #263, .T. ) ;
#365 = FACE_OUTER_BOUND ( 'NONE', #255, .T. ) ;
#366 = TOROIDAL_SURFACE ( 'NONE', #71, 8.990000000000000200, 13.99999999999999800 ) ;
#367 = FACE_OUTER_BOUND ( 'NONE', #264, .T. ) ;
#368 = CYLINDRICAL_SURFACE ( 'NONE', #67, 26.00000000000000000 ) ;
#369 = FACE_OUTER_BOUND ( 'NONE', #253, .T. ) ;
#370 = CYLINDRICAL_SURFACE ( 'NONE', #75, 22.98999999999999800 ) ;
#371 = CYLINDRICAL_SURFACE ( 'NONE', #76, 26.00000000000000000 ) ;
#372 = FACE_OUTER_BOUND ( 'NONE', #251, .T. ) ;
#373 = FACE_OUTER_BOUND ( 'NONE', #245, .T. ) ;
#374 = FACE_OUTER_BOUND ( 'NONE', #258, .T. ) ;
#375 = VECTOR ( 'NONE', #202, 1000.000000000000000 ) ;
#376 = CIRCLE ( 'NONE', #90, 2.999999999999995600 ) ;
#377 = CIRCLE ( 'NONE', #93, 25.98999999999999800 ) ;
#378 = CIRCLE ( 'NONE', #97, 22.99000000000000200 ) ;
#379 = CIRCLE ( 'NONE', #92, 2.999999999999995600 ) ;
#380 = CIRCLE ( 'NONE', #95, 26.00000000000000000 ) ;
#381 = LINE ( 'NONE', #64, #375 ) ;
#382 = CIRCLE ( 'NONE', #96, 22.98999999999999500 ) ;
#383 = LINE ( 'NONE', #31, #396 ) ;
#384 = CIRCLE ( 'NONE', #81, 13.99999999999999800 ) ;
#385 = EDGE_CURVE ( 'NONE', #160, #242, #384, .T. ) ;
#386 = EDGE_CURVE ( 'NONE', #287, #155, #376, .T. ) ;
#387 = EDGE_CURVE ( 'NONE', #288, #269, #381, .T. ) ;
#388 = EDGE_CURVE ( 'NONE', #279, #174, #379, .T. ) ;
#389 = EDGE_CURVE ( 'NONE', #287, #279, #377, .T. ) ;
#390 = EDGE_CURVE ( 'NONE', #269, #301, #380, .T. ) ;
#391 = EDGE_CURVE ( 'NONE', #242, #173, #382, .T. ) ;
#392 = EDGE_CURVE ( 'NONE', #155, #174, #378, .T. ) ;
#393 = EDGE_CURVE ( 'NONE', #289, #301, #383, .T. ) ;
#394 = EDGE_CURVE ( 'NONE', #173, #155, #395, .T. ) ;
#395 = LINE ( 'NONE', #124, #399 ) ;
#396 = VECTOR ( 'NONE', #207, 1000.000000000000000 ) ;
#397 = COLOUR_RGB ( '',0.7529411764705882200, 0.7529411764705882200, 0.7529411764705882200 ) ;
#398 = SURFACE_STYLE_FILL_AREA ( #41 ) ;
#399 = VECTOR ( 'NONE', #104, 1000.000000000000000 ) ;
#400 = SHAPE_DEFINITION_REPRESENTATION ( #403, #321 ) ;
#401 = PRESENTATION_STYLE_ASSIGNMENT (( #22 ) ) ;
#402 = PRODUCT ( '038652_Anschlag-Puffer_Schwingmetall_ContiTech', '038652_Anschlag-Puffer_Schwingmetall_ContiTech', '', ( #205 ) ) ;
#403 = PRODUCT_DEFINITION_SHAPE ( 'NONE', 'NONE',  #5 ) ;
#404 = PRODUCT_DEFINITION_CONTEXT ( 'detailed design', #8, 'design' ) ;
ENDSEC;
END-ISO-10303-21;
